Oops, an error
Loading. Please wait.

Let There Be Light Bass Tab

version 2
version 2

Whole song

Interactive

1,738 views 3 this week
no commentswrite comment
1 2 3 4 5
please rate
add to favorites
launch autoscroll
font size
0
reset
guitar tuner
Tab Pro tools
  • play this tab
  • loop segment
  • change instrument
  • show fretboard
  • metronome
×
Best way to learn
"Let There Be Light"
Autoscroll
slow
fast
+/-
esc
set tempo
stop
Contributor
Yo! heres anothere justice tune! the one that is already on this site
aint 100% done or correct (no offence) but here is my version of it
sorry if this one aint 100% but i think it sounds correct :D

Riff A
(0:53) 
|-------------9-6-|----------------------------------|
|---------6-9-----|----------------------88----11-11-|
|-----6-9---------|----------------------------------|
|-6-9-------------|-9999-9999-9999-00-66----99-------|

|-------------------|-------------9-6-|
|-------------------|---------6-9-----|
|-------------------|-----6-9---------|
|-9999-9999-9999----|-6-9-------------|

|----------------------------------|------------|
|----------------------88----11-11-|------------|
|----------------------------------|------------|
|-9999-9999-9999-00-66----99-------|--8~----4~--|

repeat these riffs untill pause (2:12)

NOTE: some notes are played longer at the bridge, just couldnt fit them
all. And 10101010 = 10th fret not -1-0-

bridge
|-------------------------------------------------|
|-------------------------------------------------|
|-----------66666666-99999999-1010101010-77777777-|
|-999999999---------------------------------------|

1st ending             2nd ending
|-------------------| |-----------------------------|
|-66666666----------| |-66666666-101010101010101010-|
|-------------------| |-----------------------------|
|----------88888888-| |-----------------------------|

repeat those riffs x2 

not too sure about this fill at the end since theres so much
distortion. sorry if it aint 100% but it is in the key of D*
so just jam to it

fill (3:16)
|------------|------------|-------------------|
|------------|------------|-------------------|
|------------|------------|-------------------|
|-9-76-0-4-6-|-9-76-0-4-6-|-0-4-6-0-4-6-0-6-8-|

the outro is played without distortion at a slower tempo :)

outro
|-------------------|--------------|-------------|
|-------------------|--------------|-------------|
|-\\--------------1-|---1---\\-4-3-|-----3-1-----| x2
|----1--1--1-2-3----|-3---2--------|-2-3------4~-|

comments
We did not receive enough feedback on this tab! Please rate:
print report bad tab
1 2 3 4 5
I want to post or [tab]
guest
You may want to rate the tab now too:
select rating
Please do not post tabs as comments. Select "correction" instead!