Oops, an error
Loading. Please wait.

Let There Be Light Bass Tab

version 3
version 3

Whole song

Interactive

848 views 1 this week
no commentswrite comment
1 2 3 4 5
please rate
add to favorites
launch autoscroll
font size
0
reset
guitar tuner
Tab Pro tools
  • play this tab
  • loop segment
  • change instrument
  • show fretboard
  • metronome
×
Best way to learn
"Let There Be Light"
Autoscroll
slow
fast
+/-
esc
set tempo
stop
This is the tab for "Let There Be Light" for a 4 string bass. The original song uses an 
extra string (B).

-1st PART MAIN FIGURE-
G|--|----------------|----------|--------------|----------|-----4------6-6-|
D|--|.------------2--|----------|--------------|----------|----------------|
A|--|.------2-3-4---2|-4---4---x|-4-4-x-4-x-4-4|-4---4---x|-------2--4-----|
E|-0|-2-3-4----------|----------|--------------|----------|-0-0------------|



G|----------|---------------|----------|-----------------|
D|----------|---------------|----------|-------------2---|
A|-4---4---x|-4-4-x-4--x-4-4|-4---4----|-------2-3-4---2-|
E|----------|---------------|---------0|-2-3-4-----------|


G|----------|---------------|----------|-----4------6-6|-------|--------|
D|----------|---------------|----------|---------------|-------|-------.|
A|-4---4-x-x|-4-4-4-x-4--x-4|-4---4---x|-------2--2----|-3~~~~-|-------.|
E|----------|---------------|----------|-0-0-----------|-------|4~~~~-0-|


-2nd MAIN FIGURE-
G|----------------------|   |--------------|
D|-11-11-11-11-----11-11|   |-11-11-11-11--|
A|----------------------|X3 |--------------|
E|-------------9--------|   |--------------|


G|-8-8-8-8-----8-8|-8-8-8-8-8---8-8|-11-11-11-11-11----11-11|
D|----------------|----------------|------------------------|
A|---------6------|----------------|------------------------|
E|----------------|----------------|------------------------|


G|-11-11-11-11-----11-11|-12-12-12-12---12-12|-9-9-9-9-9---9-9|
D|----------------------|--------------------|----------------|
A|-------------9--------|--------------------|----------------|
E|----------------------|--------------------|----------------|


G|-9-9-9-9-9---9-9|-9-9-9-9-----9-9|----------------|----------------|
D|----------------|----------------|----------------|----------------|
A|----------------|---------7------|----------------|----------------|
E|----------------|----------------|-4-4-4-4-4---4-4|-4-4-4-4-4---4-4|


G|-----------------|
D|-----------------|
A|-----------------|X2
E|-8-8-8-8-8---8-8-|

The 3rd time it ends instead with:
G|----------------|
D|----------------|
A|----------------|X2
E|-2-2-2-2-2---2-2|


-3rd PART MAIN FIGURE-
G|-----------------|----------|----------------|---------------|
D|-----------------|----------|----------------|---------------|
A|-4p0-0h2---------|-2--------|----------------|-------------3-|
E|---------3--3-4--|---2---2-2|-4p0--0-0-2--2-2|-3--3-3-4--4---|


I didn't got the ending because it's boring.
Hope it's useful.
comments
We did not receive enough feedback on this tab! Please rate:
print report bad tab
1 2 3 4 5
I want to post or [tab]
guest
You may want to rate the tab now too:
select rating
Please do not post tabs as comments. Select "correction" instead!