Oops, an error
Loading. Please wait.

One Minute To Midnight Bass Tab

6,579 views 15 this week
no commentswrite comment
1 2 3 4 5
x 6
add to favorites
launch autoscroll
font size
0
reset
guitar tuner
Autoscroll
slow
fast
+/-
esc
set tempo
stop
Help us to improve Ultimate-Guitar.com Take our survey!
×
Author
Difficulty
Tuning
novice
D A D G B E
Intro:
G-------|
D-------|
A-------|
D--0~~--|

Main Riff:
G--------------------------|
D--32----------------32----|
A----3-1---------------3---|
D-------5~---3-5~-------0~-|

This repeats throughout the song with small variations.
In the actual song, i think its played at least an octave higher,
but i prefer playing the low ends.

If you want to play up an octave, heres the tab:


G-------|
D--0~~--|
A-------|
D-------|


G---10-9----------------10-9------|
D--------10-8----------------10-0-|
A-------------10~-8-10~-----------|
D---------------------------------|
Suggest correction
comments
print report bad tab
guest
You may want to rate the tab now too:
select rating
Wanna post a correction for this tab? Suggest correction