Oops, an error
Loading. Please wait.

Phantom Part 2 Bass Tab

version 1
version 1

Whole song

Interactive

13,726 views 6 this week
no commentswrite comment
1 2 3 4 5
accurate
x 5
add to favorites
launch autoscroll
font size
0
reset
guitar tuner
Tab Pro tools
  • play this tab
  • loop segment
  • change instrument
  • show fretboard
  • metronome
×
Best way to learn
"Phantom Part 2"
Autoscroll
slow
fast
+/-
esc
set tempo
stop
Difficulty
Tuning
intermediate
D A D G B E
Main Riff
G|----------------|----------------|----------------|----------------|
D|-------------235|----------------|----------------|----------------|
A|-5~~~~~~~\\-----|-1--3---------5-|-3~~~-----------|----------------|
D|----------------|-----5~~~-------|---------7--5~~~|-----\\(0)---357|

G|----------------|
D|----------------|
A|---------5-5-55\|
D|-0~~~---0-0-0---|

Funky Slap Riff
G|--------7---------|----5------------|---------------------|---------------|
D|---------------235|-----------------|---------------------|---------------|
A|-5-5-5-5-5-5-5----|-1-------------5-|-3-3-3---------------|----3----3-----|
D|------------------|-----5-5-5-3h5---|-------3h5-7--5-5-5-5|-3/7--3/7---357|

G|--7-----------7-7-7---|
D|----------------------|
A|---5---------5-5-5-55\|
D|-0~~~0-0-00-----------|

Breakdown
G|------------------|-----------------|----------------|-------------------|
D|------------141517|-----------------|----------------|-------------------|
A|-5~~~~~\\17-------|-13--15-------17-|-15~~~----------|-------------------|
D|------------------|---------17------|-------19--15~~~|-------------151719|

G|--------------|
D|--------------|
A|--------------|
D|-0~~~--//12~~-|
comments
print report bad tab
I want to post or [tab]
guest
You may want to rate the tab now too:
select rating
Please do not post tabs as comments. Select "correction" instead!