Oops, an error
Loading. Please wait.

Phantom Bass Tab

version 2
version 2

Whole song

2,388 views 3 this week
no commentswrite comment
1 2 3 4 5
please rate
add to favorites
launch autoscroll
font size
0
reset
guitar tuner
Tab Pro tools
  • play this tab
  • loop segment
  • change instrument
  • show fretboard
  • metronome
×
Best way to learn
"Phantom"
Autoscroll
slow
fast
+/-
esc
set tempo
stop
Contributor
Artist: Justice
Song: Phantom 2

It' s a slap tab:

"s" to strap
"t" to thumb


verse

        s  s  s  s  s                                   s             s
G|------5--5--5--5--5----------------------------------5--------------------|
D|------------------------------------------------------------------------3-|
A|----5--5--5--5--5-----------5----5----5----5----5--5----5----5----5-------|
E|--------------------------------------------------------------------------|
      t  t  t  t  t           t    t    t    t    t  t    t    t    t

           s                       s
G|---------------------------------5----------------------|
D|---------5----------------------------------------------|
A|------------3----3----3----3--3-----3----3----3----3--3-|
E|-0--1--3------------------------------------------------|
   t  t  t    t    t    t    t  t     t    t    t    t  t


G|-----------------------------------------------------|
D|-----------------------------------------------------|
A|----------------------3------------------------------|
E|-3----3----3----3--3-----1--3----3--3----1--3--5--1--|
   t    t    t    t  t  t  t  t    t  t    t  t  t  t

   s          s    s    s    s    s
G|-5----------5----5----5----5----5---------|
D|------------------------------------------|
A|----5--5-5----5----5----5----5----5-------|
E|------------------------------------------|
      t  t t    t    t    t    t    t


at last time

           s    s    s    s    s
G|---------5----5----5----5----5---5-----|
D|---------------------------------------|
A|------5----5----5----5----5----5-------|
E|---------------------------------------|
        t    t    t    t    t    t
comments
We did not receive enough feedback on this tab! Please rate:
print report bad tab
1 2 3 4 5
I want to post or [tab]
guest
You may want to rate the tab now too:
select rating
Please do not post tabs as comments. Select "correction" instead!