Oops, an error
Loading. Please wait.

Planisphere Final Tab

12,997 views 9 this week
3 commentsread comments
1 2 3 4 5
excellent!
x 10
add to favorites
launch autoscroll
font size
0
reset
how to read this tab
guitar tuner
Autoscroll
slow
fast
+/-
esc
set tempo
stop
Help us to improve Ultimate-Guitar.com Take our survey!
×
Author
Difficulty
TomleHat 487
intermediate
-------------------------------------------------------------------------------
                             PLANISPHERE (final) - Justice
-------------------------------------------------------------------------------
Tabbed by: TomleHat
Email: thom25j@yahoo.co.uk

Tuning: Standard

This song has been stuck in my head for a week and a half now so I thought I might as well tab 
it - I'll just forget my engineering degree for a while! My guitar only has 20 frets and my strings 
are quite thick gauge so I almost sliced my fingers off trying to get to the non-existant 23rd 
fret, so repay me in comments and stars! Muhahahahaha!

0:00
e|-------|------------------------------|-----------------------------------------------|
B|-------|------------------------------|-----------------------------------------------|
G|-x-12\-|------------------------------|-------------------------------------------12\-|
D|-x-13\-|------------3--4--3-----2-----|-------------------------------------------13\-|
A|-x-13\-|-6----5--6--------------------|-6----5--6/8--8/9--9/11--11/13----10\7-7---13\-|
E|-x-11\-|------------------------------|-------------------------------------------11\-|

0:18
e|-------------------------------14p12--12----|
B|-----------------------------------------13-|
G|-11--------11--10--11--10---11--------------|
D|--------------------------------------------|
A|--------8-----------------------------------|
E|--------------------------------------------|

e|----------------11-13-14-13---11-13-14bbp13-14---13-11-13-14-13-11---------------------11-12-----|
B|-------11-13-14----------------------------------------------------14---14h16p14-13-14--------8\-|
G|-11-------------------------------------------------------------------------------------------8\-|
D|----13----------------------------------------------------------------------------------------8\-|
A|-------------------------------------------------------------------------------------------------|
E|-------------------------------------------------------------------------------------------------|

0:35            
e|------------------------------16-18---16-14-13-14-16-13--------12------|
B|-4/--16--------------16-18-19-----------------------------11--------13-|
G|------------15-17-18---------------------------------------------------|
D|-----------------------------------------------------------------------|
A|-----------------------------------------------------------------------|
E|-----------------------------------------------------------------------|

e|-11-13-14-13-11-10--13----------------------------------8----|
B|-----------------------11-------------------------------11bb-|
G|------------------------------10----10-11-13-11-10-9---------|
D|-------------------------------------------------------------|
A|-------------------------------------------------------------|
E|-------------------------------------------------------------|

0:53
e|------------------------------16-18---11-13-14-13-11-11h13---------11-13-11----11h12\8--|
B|-4/--16--------------16-18-19------------------------------14---14----------14----------|
G|------------15-17-18--------------------------------------------------------------------|
D|----------------------------------------------------------------------------------------|
A|----------------------------------------------------------------------------------------|
E|----------------------------------------------------------------------------------------|

1:01
e|-11---11-14p11-13p11----|
B|-14bb----------------14-|
G|------------------------|
D|------------------------| x3
A|------------------------|
E|------------------------|

e|-11---11-14p11-13-14-16-11-------------16/18-15--------|
B|-14bb-------------------14bb--14--13------------17-----|
G|---------------------------------------------------17\-|
D|-------------------------------------------------------|
A|-------------------------------------------------------|
E|-------------------------------------------------------|

1:10
e|-11~~--------------------|
B|-11~~--------------------|
G|-12~~---------------12\--|
D|-13~~---------------13\--|
A|-13~~---------------13\--|
E|-11~~---------------11\--|

1:28
e|-11---11-14p11-13p11----|
B|-14bb----------------14-|
G|------------------------|
D|------------------------| x4
A|------------------------|
E|------------------------|

e|-13--------12--------|
B|------11--------13---|
G|---------------------|
D|---------------------|
A|---------------------|
E|---------------------|

e|-11---11-14p11-13p11----|
B|-14bb----------------14-|
G|------------------------|
D|------------------------| x3
A|------------------------|
E|------------------------|

e|-11---11-14p11-13-14-16-11-------------16/18-15--------|
B|-14bb-------------------14bb--14--13------------17-----|
G|---------------------------------------------------17\-|
D|-------------------------------------------------------|
A|-------------------------------------------------------|
E|-------------------------------------------------------|

1:45
e|----------------11-13-14-13---11-13-14bbp13-14---13-11-13-14-13-11---------------------11-12-----|
B|-------11-13-14----------------------------------------------------14---14h16p14-13-14--------8\-|
G|-11-------------------------------------------------------------------------------------------8\-|
D|----13----------------------------------------------------------------------------------------8\-|
A|-------------------------------------------------------------------------------------------------|
E|-------------------------------------------------------------------------------------------------|

e|------------------------------16-18---16-14-13-14-16-13--------12-------14----|
B|-4/--16--------------16-18-19-----------------------------11--------13-----11-|
G|------------15-17-18----------------------------------------------------------|
D|------------------------------------------------------------------------------|
A|------------------------------------------------------------------------------|
E|------------------------------------------------------------------------------|

2:03
e|-14p13h-|
B|--------|
G|--------|
D|--------| x36 (yup! I counted!)
A|--------|
E|--------|

e|-12h13p12h13p12h13p12h13p12h13p12h13p12h13p12h13--18/20------|
B|-------------------------------------------------------------|
G|-------------------------------------------------------------|
D|---------------------------------------------------------13\-|
A|-------------------------------------------------------------|
E|-------------------------------------------------------------|

2:11
e|------------------------------16-18---11-13-14-13-11-11h13---------11-13-11----11h12\8-----|
B|-4/--16--------------16-18-19------------------------------14---14----------14----------8\-|
G|------------15-17-18--------------------------------------------------------------------8\-|
D|----------------------------------------------------------------------------------------8\-|
A|-------------------------------------------------------------------------------------------|
E|-------------------------------------------------------------------------------------------|

2:20
e|-11----13----14----13----11----6----11----9--------8-----10h11-12-|
B|-14bb--16bb--17bb--16bb--14bb--9bb--14bb--12bb-----11bb-----------|
G|------------------------------------------------------------------|
D|------------------------------------------------------------------|
A|------------------------------------------------------------------|
E|------------------------------------------------------------------|

e|-11----13----14----13----11----6----11----9----9-13---9h10h11h12--9------------9-|
B|-14bb--16bb--17bb--16bb--14bb--9bb--14bb--12bb----------------------10-8---------|
G|-------------------------------------------------------------------------7/9-----|
D|---------------------------------------------------------------------------------|
A|---------------------------------------------------------------------------------|
E|---------------------------------------------------------------------------------|

e|-11----13----14----13----11----6----11----9--------8-----10h11-12-|
B|-14bb--16bb--17bb--16bb--14bb--9bb--14bb--12bb-----11bb-----------|
G|------------------------------------------------------------------|
D|------------------------------------------------------------------|
A|------------------------------------------------------------------|
E|------------------------------------------------------------------|

e|-11----13----14----13----11----6----11----9----9-13---9h10h11h12--9----------|
B|-14bb--16bb--17bb--16bb--14bb--9bb--14bb--12bb----------------------10-8-----|
G|-------------------------------------------------------------------------7/9-|
D|-----------------------------------------------------------------------------|
A|-----------------------------------------------------------------------------|
E|-----------------------------------------------------------------------------|

2:55
e|-11---11-14p11-13p11----|
B|-14bb----------------14-|
G|------------------------|
D|------------------------| x4
A|------------------------|
E|------------------------|

e|-13--------12--------|
B|------11--------13---|
G|---------------------|
D|---------------------|
A|---------------------|
E|---------------------|

e|-11---11-14p11-13p11----|
B|-14bb----------------14-|
G|------------------------|
D|------------------------| x3
A|------------------------|
E|------------------------|

e|-11---11-14p11-13-14-16-11-------------16/18-15--------|
B|-14bb-------------------14bb--14--13------------17-----|
G|---------------------------------------------------17\-|
D|-------------------------------------------------------|
A|-------------------------------------------------------|
E|-------------------------------------------------------|

3:13
e|----11--14-13-11-14-13-11-10--13------11-|
B|-13------------------------------11------|
G|-----------------------------------------|
D|-----------------------------------------|
A|-----------------------------------------|
E|-----------------------------------------|

e|-------------11----------------------------------18~~--20~~-|
B|-14-11-13-14----14-11-13-14-14-11-13-14-14-11-13------------|
G|------------------------------------------------------------|
D|------------------------------------------------------------|
A|------------------------------------------------------------|
E|------------------------------------------------------------|

3:21
e|-20b---20b-20-20b--------------------------20b--18~-|
B|----------------------------15--18------------------|
G|---------------------15-17---------15~~-------------|
D|----------------------------------------------------|
A|----------------------------------------------------|
E|----------------------------------------------------|

e|-------------------------------------------18---20--|
B|----------16h18h19----------16h18h19----------------|
G|-15h17h18----------15h17h18----------15h17----------|
D|----------------------------------------------------|
A|----------------------------------------------------|
E|----------------------------------------------------|

3:30
e|----------14------------------14------------------14-18\----------------------|
B|----14-16----16-14------14-16----16-14------14-16---------16-14---------------|
G|-15------------------15------------------15---------------------14/15---------|
D|------------------------------------------------------------------------------|
A|------------------------------------------------------------------------12/13-|
E|------------------------------------------------------------------------------|

e|-20b-----------------------------------------------------------------------20b-20b-20b-|
B|---------------16h18h19----------16h18h19----------16h18h19----------16-19-------------|
G|------15h17h18----------15h17h18----------15h17h18----------15h17h18-------------------|
D|---------------------------------------------------------------------------------------|
A|---------------------------------------------------------------------------------------|
E|---------------------------------------------------------------------------------------|

3:39
e|-20bbb-20bbb-20bbb----20bbb-20bb----18-18-----20bb\----18--20--20b\15-|
B|----------------------------------------------------------------------|
G|----------------------------------------------------------------------|
D|----------------------------------------------------------------------|
A|----------------------------------------------------------------------|
E|----------------------------------------------------------------------|

e|-------11-14-----13---11---17b-13-----------------------------|
B|----13-------------------------------14---13-14---13-11-------|
G|-14-------------------------------------------------------12\-|
D|--------------------------------------------------------------|
A|--------------------------------------------------------------|
E|--------------------------------------------------------------|

3:56
e|-----------------------------------------------------------20b---20-20b---20-18~~~-|
B|-----------------------------------------------------------------------------------|
G|-----11----10h11p10p8----10--------10-------------------9--------------------------|
D|-13-------------------12--------11-------11h13p11-10-------------------------------|
A|-----------------------------------------------------------------------------------|
E|-----------------------------------------------------------------------------------|


| /   slide up
| \   slide down
| h   hammer-on
| p   pull-off
| ~   vibrato
| b   bend up one fret
| bb  bend up two frets
| bbb bend up three frets
| x   Mute note
===============================================================================
Suggest correction new What's this?
You can suggest a correction to this tab. Community and Mods will review your correction and vote to approve or reject it.
comments
print report bad tab
3 comments total.
+3 reply
Darkcha0s 14 wrote on November 20 2008, 04:15 pm

Great tab, this has also been stuck in my head for quite some time!

0 reply
Phridge 474 wrote on December 9 2008, 02:28 pm

I only have an acoustic- So from now on, you can call me johnny the-bloody-fingers-sliced-up-hands-too-because-that's-how-i-roll-****kaaahz McGee\!!

Great tabbage by the way!

0 reply
dw1987 34 wrote on January 14 2009, 11:01 am

Awesome tab, so parts need attention like the final scale run bits, but otherwise its spot on!

Also, the part you tabbed as:

e|----------14------------------14---------
B|----14-16----16-14------14-16----16-14---
G|-15------------------15------------------
D|-----------------------------------------
A|-----------------------------------------
E|-----------------------------------------

I play:

e|-------11h14p11----------11h14p11--------
B|----13----------13----13----------13-----
G|-14----------------14--------------------
D|-----------------------------------------
A|-----------------------------------------
E|-----------------------------------------

guest
You may want to rate the tab now too:
select rating
Please do not post tabs as comments. Select "correction" instead!