Oops, an error
Loading. Please wait.

Reason Tab

527 views 1 this week
no commentswrite comment
1 2 3 4 5
please rate
add to favorites
launch autoscroll
font size
0
reset
how to read this tab
guitar tuner
Autoscroll
slow
fast
+/-
esc
set tempo
stop
Help us to improve Ultimate-Guitar.com Take our survey!
×
Difficulty
Tuning
intermediate
D A D G B E
"The reason", by the justice

/= slide
.= mute
pm= palm mute

drop D tuning

(intro, 1st part)

E--------------------------------------------------------------------------------------------|
B--------------------------------------------------------------------------------------------|
G--------------------------------------------------------------------------------------------|
D--99--44--12--77-88-------------------------------------------------------------------------|X4
A--99--44--12--77-88-------------------------------------------------------------------------|
D--99--44--12--77-88-------------------------------------------------------------------------|

(intro, 2nd part)

E--------------------------------------------------------------------------------------------|
B--------------------------------------------------------------------------------------------|
G--------------------------------------------------------------------------------------------|
D--99-9999--44-4444--1212 12121212--77-7777--------------------------------------------------|X2
A--99-9999--44-4444--1212 12121212--77-7777--------------------------------------------------|
D--99-9999--44-4444--1212 12121212--77-7777--------------------------------------------------|
      ....     ....       . . . .      ....

(intro, 3rd part)

E--------------------------------------------------------------------------------------------|
B--------------------------------------------------------------------------------------------|
G--------------------------------------------------------------------------------------------|
D--(99--55--77--44X2)----(999999--555555--777777--444444X2)----------------------------------|
A--(99--55--77--44X2)----(999999--555555--777777--444444X2)----------------------------------|
D--(99--55--77--44X2)----(999999--555555--777777--444444X2)----------------------------------|

(bridge)

E--------------------------------------------------------------------------------------------|
B--------------------------------------------------------------------------------------------|
G--------------------------------------------------------------------------------------------|
D--555--888--333--555----555--888--101010--777----555--888--333--555----555--888-8-7-3-5-5---|
A--555--888--333--555----555--888--101010--777----555--888--333--555----555--888-8-7-3-5-5---|
D--555--888--333--555----555--888--101010--777----555--888--333--555----555--888-8-7-3-5-5---|

(verse)

E--------------------------------------------------------------------------------------------|
B--------------------------------------------------------------------------------------------|
G--------------------------------------------------------------------------------------------|
D--11--9--7--9-------------------------------------------------------------------------------|X4
A--11--9--7--9-------------------------------------------------------------------------------|
D--11--9--7--9-------------------------------------------------------------------------------|
(figure strumming pattern)

(chorus)

E--------------------------------------------------------------------------------------------|
B--------------------------------------------------------------------------------------------|
G--------------------------------------------------------------------------------------------|
D--9999--5555--22--44----9999--5555--1212--77----9999--5555--22--44----9999--555-(5/777X4)---|
A--9999--5555--22--44----9999--5555--1212--77----9999--5555--22--44----9999--555-(5/777X4)---|
D--9999--5555--22--44----9999--5555--1212--77----9999--5555--22--44----9999--555-(5/777X4)---|

(interlude)

E--------------------------------------------------------------------------------------------|
B--------------------------------------------------------------------------------------------|
G--------------------------------------------------------------------------------------------|
D--------9---------9----------------9-10-----------10---------9----------------9-------------|X2
A-----10---10---10---10---10-9-10-9------10-----10----10---10---10---10-9-10-9---------------|
D--10---------9---------7--------------------10----------9---------7-------------------------|

(ending bridge)

E----------------------------------------------------------------------------------------------|
B----------------------------------------------------------------------------------------------|
G----------------------------------------------------------------------------------------------|
D--555--888--333--555----555--888--101010--121212----555--888--333--555----555--888-8-7-5-3-5--|
A--555--888--333--555----555--888--101010--121212----555--888--333--555----555--888-8-7-5-3-5--|
D--555--888--333--555----555--888--101010--121212----555--888--333--555----555--888-8-7-5-3-5--|

(Ending, part 1)

E--------------------------------------------------------------------------------------------|
B--------------------------------------------------------------------------------------------|
G--------------------------------------------------------------------------------------------|
D--121212--161616--101010--121212----121212--161616--181818--1515----------------------------|
A--121212--161616--101010--121212----121212--161616--181818--1515----------------------------|
D--121212--161616--101010--121212----121212--161616--181818--1515----------------------------|

(ending, part 2)

E--------------------------------------------------------------------------------------------|
B--------------------------------------------------------------------------------------------|
G--------------------------------------------------------------------------------------------|
D--121212--161616--101010--121212----121212--161616-(16-15-12-10-12X3)-16-15-10-12-0---------|
A--121212--161616--101010--121212----121212--161616-(16-15-12-10-12X3)-16-15-10-12-0---------|
D--121212--161616--101010--121212----121212--161616-(16-15-12-10-12X3)-16-15-10-12-0---------|

this is the order of the song

intro (1st, 2nd, and 3rd parts)
bridge
verse
chorus
bridge
verse
chorus
interlude
chorus
ending bridge
ending (parts 1 and 2)
Suggest correction
Give kudos to tab author, rate the tab!
1 2 3 4 5
comments
print report bad tab
guest
You may want to rate the tab now too:
select rating
Please do not post tabs as comments. Select "correction" instead!