Oops, an error
Loading. Please wait.

Time Stands Still For No One Tab

version 2
version 2

Whole song

151 views 1 this week
no commentswrite comment
1 2 3 4 5
3 more votes to show rating
add to favorites
launch autoscroll
font size
0
reset
how to read this tab
guitar tuner
Autoscroll
slow
fast
+/-
esc
set tempo
stop
Help us to improve Ultimate-Guitar.com Take our survey!
×
Difficulty
Tuning
novice
D A D G B E
"Time stands still for no one" by the justice.

drop D tuning

.= mute

(intro)

E-----------------------------------------------------------------------|
B-----------------------------------------------------------------------|
G-----------------------------------------------------------------------|
D------7----7-----7----7-----5----5-----2---3-2-------------------------|X2
A--555---55---777---77---333---33---000---0-----3-2---------------------|
D-----------------------------------------------------------------------|

(verse 1)

E-----------------------------------------------------------------------|
B-----------------------------------------------------------------------|
G--------------55-------------------------------------------------------|
D--55--88--33--33-1,1---------------------------------------------------|X4
A--55--88--33--33-1,1---------------------------------------------------|
D--55--88--33-----1,1---------------------------------------------------|

(prechorus)

E-----------------------------------------------------------------------|
B-----------------------------------------------------------------------|
G-----------------------------------------------------------------------|
D--00000--7777--9999--5555----------------------------------------------|X2
A--00000--7777--9999--5555----------------------------------------------|
D--00000--7777--9999--5555----------------------------------------------|

(chorus)

E-----------------------------------------------------------------------|
B-----------------------------------------------------------------------|
G-----------------------------------------------------------------------|
D--101010--55555--77777--5555----101010--55555--77777--55-555-----------|X2
A--101010--55555--77777--5555----101010--55555--77777--55-555-----------|
D--101010--55555--77777--5555----101010--55555--77777--55-555-----------|
                                                          ...

(pre verse 2)

E--22222--22222--22222--22222--00000------------------------------------|
B--33333--00000--33333--00000--00000------------------------------------|
G--22222--33333--22222--22222--11111------------------------------------|
D--00000--00000--00000--------------------------------------------------|X2
A--00000--00000--00000--------------------------------------------------|
D--00000--00000--00000--------------------------------------------------|

(verse 2)

E--22222--22222--22222--22222-------------------------------------------|
B--33333--33333--33333--33333-------------------------------------------|
G--22222--00000--00000--22222-------------------------------------------|
D--00000--00000--22222--00000-------------------------------------------|X2
A--00000--00000--00000--00000-------------------------------------------|
D--00000--00000--00000--00000-------------------------------------------|

this is the order of the song

intro
verse
prechorus
chorus
intro
pre verse 2
verse 2
chorus
Suggest correction
Give kudos to tab author, rate the tab!
1 2 3 4 5
comments
print report bad tab
guest
You may want to rate the tab now too:
select rating
Wanna post a correction for this tab? Suggest correction