Oops, an error
Loading. Please wait.

We Are Your Friends Bass Tab

version 1
version 1

Whole song

Interactive

44,098 views 57 this week
5 commentsread comments
1 2 3 4 5
x 18
add to favorites
launch autoscroll
font size
0
reset
guitar tuner
Autoscroll
slow
fast
+/-
esc
set tempo
stop
Help us to improve Ultimate-Guitar.com Take our survey!
×
Difficulty
intermediate
Justice Vs. Symian - we are your friends

Here is the main bass riff. It is actually played on a synthesizer
but it is really fun to play on bass.


G-----------------------|-------------------------|
D-----------------------|----------------3h5----5-|
A-0----0----0----0--0-3-|-0----0----3--0----------|
E-----------------------|--------------------3----|

G-------------------------|----8-----8--------------|
D-------------------3-----|-------------------------|
A----------------0----3p0-|-6-----6-----------------|
E-1----1----1-------------|-------------3---3-3--3-3|

You'll have to figure out the timing for yourself, but those are the notes.

All other riffs are based around this main theme.



************************************

| h  Hammer-on
| p  Pull-off

************************************
Suggest correction
comments
print report bad tab
5 comments total. Showing first comments.
0 reply
JimiHendrix92 153 Oct 22, 2006 10:08 AM

Nice tab bro! thanks =D

0 reply
jensfg 30 Oct 26, 2007 08:16 PM

Very nice :)

+4 reply
wcsn44 72 Jan 05, 2008 07:33 PM

heres the other riff
played:
G-----------------------|-----------------8-8-------|
D--------------------35-|---------------------------|
A
-0--000-30--0-0-0-30---|----------------6-6--------|
E-----------------------|1111111111111111----3-333--|

guest
You may want to rate the tab now too:
select rating
Wanna post a correction for this tab? Suggest correction