Oops, an error
Loading. Please wait.

We Are Your Friends Bass Tab

version 2
version 2

Whole song

Interactive

23,982 views 18 this week
no commentswrite comment
1 2 3 4 5
x 3
add to favorites
launch autoscroll
font size
0
reset
guitar tuner
Autoscroll
slow
fast
+/-
esc
set tempo
stop
Help us to improve Ultimate-Guitar.com Take our survey!
×
Author
Difficulty
intermediate
Tabbed By : Pumpkin_Howie (PumpkinKyuubi)
e-mail: myspace.com/tonguemahbass OR youtube.com/user/PumpkinKyuubi

Tuning: standard

Ok so this is an improvement (i hope?) on the tab that is already up. The lines dont 
the actual bars, it just splits the song up and makes it easier to learn i think? well it 
me anyway.

It's not accurate but if you listen to the song it should provide a nice jumpstart for 
to work on it yourself

If people ask nicely i'll work on it some more

Look out for my video on youtube (username: PumpkinKyuubi)

but someone else has a much better video up (username:subschool5)

Justice - We Are Your Friends

G|------------|-----------|----------|----------|------------8----8-|--------------------|
D|------------|-----------|-3h5----5-|----------|-3p0---------------|--------------------|
A|--0-0-0-003-|--0-0-3-00-|----------|--------0-|----3----6----6----|--------------------|
E|------------|-----------|-----3----|--1-1-1---|-------------------|-3--333-------------|

This is main riff ^


G|------------|---------|----------|--------|-------------------------------------------|
D|------------|---------|----------|-----5--|--------------33---------------------------|
A|------------|---------|------3---|--------|----------00------33-666666----------------|
E|-33-3-333---|-5-5-355-|--5-5---5-|--33--3-|-111111-----------------------333333-------|

This is the bridge ^


G|---------17-|-----12-|-----17--|--------------|
D|------19----|---14---|---19----|-19--19-18----|
A|---20-------|-15-----|-20------|---20---------|
E|------------|--------|---------|--------------|

I think this is all synth ^ but you can play along

G|----------|--------------|----------|--------------|-----------|----------|-----------|
D|----------|----------5---|----------|--------------|-----------|--------5-|-----------|
A|----------|--3-3-3-5-----|----------|-------6------|-----------|3-3-3-5---|-----------|
E|-1-1-1-35-|--------------|-1-1-1-33-|-5-5-4---4-3--|-1-1-1-3-5-|----------|-1-1-1-3-5-|

that's the last little bit, the main riff kicks in and so does the bridge for about 2-3 
i'm not really sure though!
Suggest correction
Give kudos to tab author, rate the tab!
1 2 3 4 5
comments
print report bad tab
guest
You may want to rate the tab now too:
select rating
Wanna post a correction for this tab? Suggest correction