Oops, an error
Loading. Please wait.

We Are Your Friends Bass Tab

version 3
version 3

Whole song

Interactive

12,343 views 33 this week
no commentswrite comment
1 2 3 4 5
excellent!
x 4
add to favorites
launch autoscroll
font size
0
reset
guitar tuner
Autoscroll
slow
fast
+/-
esc
set tempo
stop
Help us to improve Ultimate-Guitar.com Take our survey!
×
Author
Difficulty
intermediate
-------------------------------------------------------------------------------
			     WE ARE YOUR FRIENDS - Justice vs Simeon
-------------------------------------------------------------------------------

Tabbed By : TomleHat
e-mail: thom25j@yahoo.co.uk

Tuning: Standard

MAIN RIFF
G|-------------------|----------------------|
D|-------------------|------------3-5-----5-|
A|-----------------3-|--------3-------------|
E|-5---5---5---3h5---|-5---5----5-----3-3---|

G|----------------------|---8---8--------------|
D|----------------3p0---|----------------------|
A|------------0h3-----3-|-6---6----------------|
E|-1---1---1------------|----------3--x--3-3-3-|

BRIDGE
G|------------------------------------------|
D|----------------------------------------5-|
A|----------------------------3-------------|
E|-3-5-333-5----5-3-5---5---5---5----3-3----|

G|------------------------8-----------------------|
D|---------------3p0---------------------5--------|
A|-----------0h3------6-6----6-6-6----------------|
E|-1--3-1-1--------------------------3-3----3-3-3-|

SYNTH (Cant go any higher as you run out of frets) 1:03
G|-----------17---------------12---------------17-----17----17-16-|
D|-15--17h19--------10--12h14--------15--17h19-----------19-------|
A|----------------------------------------------------------------|
E|----------------------------------------------------------------|

MAIN RIFF

RIFF 1
G|---------------------------------------------------------8----------------|
D|----------------------------------5-------------3p0-----------------------|
A|-------3---3-------------3----------------3---3-----3--6------6-----------|
E|-5---5---5---5----5----5---5----3---1---1---1--------------------3--x-x-3-|

MAIN RIFF

OUTRO
G|-------------------------------------|
D|-------------------------------------|
A|-------------------------------------|
E|-5---5---5---5---5---5---5---3-3---5-|

| h  hammer-on
| p  pull-off
| x  Mute note
===============================================================================
Suggest correction
comments
print report bad tab
guest
You may want to rate the tab now too:
select rating
Please do not post tabs as comments. Select "correction" instead!