Oops, an error
Loading. Please wait.

Be Alright Tab

version 1
version 1
31,310 views 15 this week
no commentswrite comment
1 2 3 4 5
x 5
add to favorites
launch autoscroll
font size
0
reset
how to read this tab
guitar tuner
×
Best way to learn
"Be Alright"
Autoscroll
slow
fast
+/-
esc
set tempo
stop
Author
Difficulty
novice
[Intro/Verse/Chorus]

e|------------------------------------------------|
b|------------------------------------------------|
g|-------------7--7-------9----9--------5---5-----|
d|---5--5------7--7-------9----9--------5---5-----|
a|---5--5---5-----5----7-------7-----3------3-----|
E|-3----3-----------------------------------------|

[Bridge]

e|------------------------------------------------|
b|------------------------------------------------|
g|-------------5--5-------------------------------|
d|---7--7------5--5-------5----5---------5---5----|
a|---7--7---3-----3-------5----5---------5---5----|
E|-5----5--------------3-------3-----3-------3----|(2x)
Suggest correction
comments
print report bad tab
guest
You may want to rate the tab now too:
select rating
Wanna post a correction for this tab? Suggest correction