Oops, an error
Loading. Please wait.

Be Alright Tab

version 3
version 3
6,486 views 3 this week
no commentswrite comment
1 2 3 4 5
please rate
add to favorites
launch autoscroll
font size
0
reset
how to read this tab
guitar tuner
Autoscroll
slow
fast
+/-
esc
set tempo
stop
Help us to improve Ultimate-Guitar.com Take our survey!
×
Contributor
Capo
kamdude 3,673
4th fret
Capo on 4

Intro:

e|----------------------------------------------------------------|
B|--------0------------------------------0------------------------|
G|-0/1-------------1--------------0/1--------1--------------------|
D|-2----4-----2/4-----4-----------2----4-----2--2-----------------|
A|-2----2-----2-------2---2/4/2---2----2-----2--2--2/4-2----------|
E|------------------------0------------------------0--------------|


Verse

   E       B      C#m      A
e|----------------------------------------------------------------|
B|----------------------------------------------------------------|
G|-1--1-----------------------------------------------------------|
D|-2--2----4--4----6--6-------------x2----------------------------|
A|-2--2----2--2----4--4----7--7-----------------------------------|
E|-------------------------5--5-----------------------------------|

It's too tough to tab out all the notes, but the rest just continues to pluck these chords:

   E     B     C#m   A
e|-0-----2-----4-----5-----------------------------------|
B|-0-----4-----5-----5-----------------------------------|
G|-1-----4-----6-----6-----------------------------------|
D|-2-----4-----6-----7-----------------------------------|
A|-2-----2-----4-----7-----------------------------------|
E|-0-----2-----4-----5-----------------------------------|

Pluck these chords for the part "You know that I care for you.."

e|--2----4-----0-----2---------------------------------------|
B|--2----5-----0-----4---------------------------------------|
G|--2----6-----1-----4---------------------------------------|
D|--4----6-----2-----4---------------------------------------|
A|--4----4-----2-----2---------------------------------------|
E|--2----4-----0-----2---------------------------------------|

Thats pretty much it. Rate it if you liked it.
comments
We did not receive enough feedback on this tab! Please rate:
print report bad tab
1 2 3 4 5
I want to post or [tab]
guest
You may want to rate the tab now too:
select rating
Please do not post tabs as comments. Select "correction" instead!