Oops, an error
Loading. Please wait.

Be Alright Tab

version 5
version 5
28,980 views 42 this week
1 commentread comment
1 2 3 4 5
x 10
add to favorites
launch autoscroll
font size
0
reset
how to read this tab
guitar tuner
Autoscroll
slow
fast
+/-
esc
set tempo
stop
Help us to improve Ultimate-Guitar.com Take our survey!
×
Author
Difficulty
Capo
novice
1st fret
There were alot of inaccurate tabs here, so I decided to put up a short tab for how 
I found it the best to play. Not complete song, but if you know a little guitar, you'll 
figure it out.
Note: I'm putting out the "rhytm"-guitar's part. Two guitars are used, where the other 
one just fills in with some high notes.

Capo on 1st fret.

For the intro and the chorus:

Chords in order: G D Em C & G D G-Em-C

e|--------------------      ------------------|
B|-0------3------0----     -0-----3--0--------|
G|-0----2----0h2----0-     -0---2----0-0------|
D|-0----0----2------2-     -0---0------2-2----|
A|-----------2------3-      -------------3----|
E|--------------------      ------------------|


[Verse]

   Chords in order: G G D D Em Em C C
e|---------------------------------|
B|-0---0---------------------------|
G|-0---0---2---2---'0---0---0---0--|
D|-0---0---0---0---'2---2---2---2--|
A|------------------2---2---3---3--|
E|---------------------------------|


[Bridge]

This part is not what you'll be hearing in the song, because the other guitar is playing 
higher tones, but it is correct.

  Am Am Em Em G G D D
e|----------------------------((2h3p2-0-10-|)
B|-1---1---0---0---0---0---3---3-----------|
G|-2---2---0---0---0---0---2---2-----------|
D|-2---2---2---2---0---0---0---0-----------|
A|-----------------------------------------|
E|-----------------------------------------|


  Am Am Em Em G G C C
e|---------------------------------|
B|-1---1---0---0---0---0---1---1---|
G|-2---2---0---0---0---0---0---0---|
D|-2---2---2---2---0---0---2---2---|
A|---------------------------------|
E|---------------------------------|


************************************

| h  Hammer-on
| p  Pull-off

************************************
Suggest correction
comments
print report bad tab
1 comment total.
0 reply
Januxii 85 Dec 21, 2013 05:42 PM

Sounds great! But could you maybe add the tabs for the other guitar too? ;)

guest
You may want to rate the tab now too:
select rating
Wanna post a correction for this tab? Suggest correction