Oops, an error
Loading. Please wait.

Beauty And A Beat Acoustic tab

version 4
version 4

Whole song

14,506 views 9 this week
2 commentsread comments
1 2 3 4 5
x 11
add to favorites
×
Save as Personal and add changes to this tab that will be seen only by you. Learn more ›
×
You can save this tab as Personal to edit and correct it or add notes. All changes will be seen only by you. Learn more »
launch autoscroll
font size
0
reset
how to read this tab
guitar tuner
edit
Autoscroll
slow
fast
+/-
esc
set tempo
stop
Author
[Verse]
        D#
Show you off
Cm7                   Gm              F
Tonight I wanna show you off
        D#
What you got
Cm7                       Gm                       F
A billion could've never bought (aye,aye,aye)

(It's the same progression throughout the whole verse) Also,during this second part of 
the verse there's a little lead part which goes like this :
e|---------------------------------------------------------------------------------|
B|----------------6--------6-------------------------------------------------------|
G|--7-----7------------------------------------------------------------------------|
D|-----8------8-------8--------8---------------------------------------------------|
A|---------------------------------------------------------------------------------|
E|---------------------------------------------------------------------------------|
We gonna party like it's 3012 tonight
I wanna show you all the finer things in life
So just forget about the world, we're young tonight
I'm coming for ya, I'm coming for ya

The chorus goes like :
(During the first part of the chorus,strum the chords once and do the same picking 
pattern we used in the beginning)

       D# *         F *
Cause all..
      Gm                                  A#    D# *
I need, is a Beauty and a Beat

        F *                    Gm            A#
Who can make my life complete

(In the second part of the chorus,strum the bottom strings quickly)
Also the lead part in the verse comes back during this part of the chorus:
e|---------------------------------------------------------------------------------|
B|----------------6--------6-------------------------------------------------------|
G|--7-----7------------------------------------------------------------------------|
D|-----8------8-------8--------8---------------------------------------------------|
A|---------------------------------------------------------------------------------|
E|---------------------------------------------------------------------------------|

D# *        F *
It's all..
Gm               A#                                    D# *
Bout you, when the music makes you move
F *               Gm           A#
Baby do it like you do

Cause..

(Then the beat break goes like)
e|---x---x---x---x---x-----x----x-----x----x----x----x----x----------------------------|
B|---x---x---x---x---x-----x----x-----x----x----x----x----x----------------------------|
G|---x---x---x---x---x-----x----7-----x----x----x----x----x----------------------------|
D|---5---5---5---5---5-----8----7-----5----5----5----5----5----------------------------|
A|---5---5---5---5---5-----8----5-----5----5----5----5----5----------------------------|
E|---3---3---3---3---3-----6----x-----3----3----3----3----3----------------------------|

(The little solo) (I don't know if it's really how the guitarist does it,you don't have to 
pull off,you can just pick the notes) :
e|--------------------------------------------------------------------------------|
B|--------------------------------------------------------------------------------|
G|---5p3--------------------------------------------------------------------------|
D|--------5p3---------------------------------------------------------------------|
A|----------------5---------------------------------------------------------------|
E|--------------------------------------------------------------------------------|

e|---x---x---x---x---x-----x----x-----x----x----x----x----x----------------------------|
B|---x---x---x---x---x-----x----x-----x----x----x----x----x----------------------------|
G|---x---x---x---x---x-----x----7-----x----x----x----x----x----------------------------|
D|---5---5---5---5---5-----8----7-----5----5----5----5----5----------------------------|
A|---5---5---5---5---5-----8----5-----5----5----5----5----5----------------------------|
E|---3---3---3---3---3-----6----x-----3----3----3----3----3----------------------------|

Body rock,
Girl, I can feel your body rock (aye,aye,aye)
Take a bow, you on the hottest ticket now (aye,aye,aye)
We gonna party like it's 3012 tonight
I wanna show you all the finer things in life
So just forget about the world, we're young tonight
I'm coming for ya, I'm coming for ya
Cause all..
I need, is a Beauty and a Beat
Who can make my life complete
It's all..
Bout you, when the music makes you move
Baby do it like you do



************************************

| x  Dead note
| p  Pull-off

************************************

            
            
Suggest correction
Creating personal tab
Creating personal tab
You can edit any tab online and save it as your Personal.

You can edit, replace or remove any tab part or add personal notes – all changes will be seen only by you.

Personal tabs can be accessed anytime from any device, even offline.
Learn more »
comments
print report bad tab
2 comments total.
0 reply
Lukgil 10 Dec 13, 2014 01:53 PM

It's perfect, dude!

0 reply
xLucyRx 12 Feb 21, 2016 12:10 AM

Omg this is so good dude thanks so much!

guest
You may want to rate the tab now too:
select rating
Wanna post a correction for this tab? Suggest correction