Oops, an error
Loading. Please wait.
We have an official Love Yourself tab made by UG professional guitarists. Check out the tab »
×

Love Yourself tab

version 1
version 1

Whole song

Interactive

Video

596,888 views 1,740 this week
10 commentsread comments
1 2 3 4 5
x 52
add to favorites
×
Save as Personal and add changes to this tab that will be seen only by you. Learn more ›
×
You can save this tab as Personal to edit and correct it or add notes. All changes will be seen only by you. Learn more »
launch autoscroll
font size
0
reset
how to read this tab
guitar tuner
backing track
0:00
0:00
edit
Autoscroll
slow
fast
+/-
esc
set tempo
stop
My Guitar Tutorial : https://www.youtube.com/watch?v=VzbtVKI6C2E

[INTRO] 
   E             B           C#m         F#m             E           B
e|-----------x-----------x-----------x---------------x-----------x-----------x|
B|-7h9---9---x---7---7---x---5---5---x---9h10---10---x---9---9---x---7---7---x|
G|-9-----9---x---8---8---x---6---6---x---11-----11---x---9---9---x---8---8---x|
D|-9---------x---9-------x---6-------x---11----------x---9-------x---9-------x|
A|-7---------x---9-------x---4-------x---9-----------x---7-------x---9-------x|
E|-----------x-----------x-----------x---------------x-----------x-----------x|


[VERSE]
   E             B           C#m         F#m             E           B
e|-----------x-----------x-----------x---------------x-----------x-----------x|
B|-7h9---9---x---7---7---x---5---5---x---9h10---10---x---9---9---x---7---7---x|
G|-9-----9---x---8---8---x---6---6---x---11-----11---x---9---9---x---8---8---x|x2
D|-9---------x---9-------x---6-------x---11----------x---9-------x---9-------x|
A|-7---------x---9-------x---4-------x---9-----------x---7-------x---9-------x|
E|-----------x-----------x-----------x---------------x-----------x-----------x|


[PRE-CHORUS]
   E             B           C#m         F#m             E           B
e|-----------x-----------x-----------x---------------x-----------x-----------x|
B|-7h9---9---x---7---7---x---5---5---x---9h10---10---x---9---9---x---7---7---x|
G|-9-----9---x---8---8---x---6---6---x---11-----11---x---9---9---x---8---8---x|
D|-9---------x---9-------x---6-------x---11----------x---9-------x---9-------x|
A|-7---------x---9-------x---4-------x---9-----------x---7-------x---9-------x|
E|-----------x-----------x-----------x---------------x-----------x-----------x|

   C#m         A       E           E
e|---------x-------x-----------x--------|
B|---------x-------x-----------x--------|
G|-6---6---x---2---x---1---1---x---1----|x2
D|-6---6---x---2---x---2---2---x---2----|
A|-4-------x---0---x---2-------x---2----|
E|---------x-------x---0-------x---0----|

   C#m         A       E           B      C#m         A        B Strum x5
e|---------x-------x-----------x--------|---------x-------x-------------------|
B|---------x-------x-----------x--------|---------x-------x----2--------------|
G|-6---6---x---2---x---1---1---x---4----|-6---6---x---2---x----4--------------|
D|-6---6---x---2---x---2---2---x---4----|-6---6---x---2---x----4--------------|
A|-4-------x---0---x---2-------x---2----|-4-------x---0---x----2--------------|
E|---------x-------x---0-------x--------|---------x-------x-------------------|


[CHORUS]
   E       B      C#m      A       E        B               E
e|-----x-------x-------x-------x-------x------------------------x--------------|
B|-----x---4---x---5---x-------x-------x------------------------x--------------|
G|-1---x---4---x---6---x---6---x---1---x----4---(4)---(2)---1---x--------------|x2
D|-2---x---4---x---6---x---7---x---2---x----4---(4)---(4)---2---x--------------|
A|-2---x---2---x---4---x---7---x---2---x----2---(2)---(2)---2---x--------------|
E|-0---x-------x-------x---5---x---0---x--------------------0---x--------------|
                                                

[BRIDGE]
   E             B           C#m         F#m             E           B
e|-----------x-----------x-----------x---------------x-----------x-----------x|
B|-7h9---9---x---7---7---x---5---5---x---9h10---10---x---9---9---x---7---7---x|
G|-9-----9---x---8---8---x---6---6---x---11-----11---x---9---9---x---8---8---x|
D|-9---------x---9-------x---6-------x---11----------x---9-------x---9-------x|
A|-7---------x---9-------x---4-------x---9-----------x---7-------x---9-------x|
E|-----------x-----------x-----------x---------------x-----------x-----------x|


[VERSE]
   E             B           C#m         F#m             E           B
e|-----------x-----------x-----------x---------------x-----------x-----------x|
B|-7h9---9---x---7---7---x---5---5---x---9h10---10---x---9---9---x---7---7---x|
G|-9-----9---x---8---8---x---6---6---x---11-----11---x---9---9---x---8---8---x|x2
D|-9---------x---9-------x---6-------x---11----------x---9-------x---9-------x|
A|-7---------x---9-------x---4-------x---9-----------x---7-------x---9-------x|
E|-----------x-----------x-----------x---------------x-----------x-----------x|


[PRE-CHORUS]
   E             B           C#m         F#m             E           B
e|-----------x-----------x-----------x---------------x-----------x-----------x|
B|-7h9---9---x---7---7---x---5---5---x---9h10---10---x---9---9---x---7---7---x|
G|-9-----9---x---8---8---x---6---6---x---11-----11---x---9---9---x---8---8---x|
D|-9---------x---9-------x---6-------x---11----------x---9-------x---9-------x|
A|-7---------x---9-------x---4-------x---9-----------x---7-------x---9-------x|
E|-----------x-----------x-----------x---------------x-----------x-----------x|

   C#m         A       E           E
e|---------x-------x-----------x--------|
B|---------x-------x-----------x--------|
G|-6---6---x---2---x---1---1---x---1----|x2
D|-6---6---x---2---x---2---2---x---2----|
A|-4-------x---0---x---2-------x---2----|
E|---------x-------x---0-------x---0----|

   C#m         A       E           B      C#m         A        B Strum x5
e|---------x-------x-----------x--------|---------x-------x-------------------|
B|---------x-------x-----------x--------|---------x-------x----2--------------|
G|-6---6---x---2---x---1---1---x---4----|-6---6---x---2---x----4--------------|
D|-6---6---x---2---x---2---2---x---4----|-6---6---x---2---x----4--------------|
A|-4-------x---0---x---2-------x---2----|-4-------x---0---x----2--------------|
E|---------x-------x---0-------x--------|---------x-------x-------------------|


[CHORUS]
   E       B      C#m      A       E        B               E
e|-----x-------x-------x-------x-------x------------------------x--------------|
B|-----x---4---x---5---x-------x-------x------------------------x--------------|
G|-1---x---4---x---6---x---6---x---1---x----4---(4)---(2)---1---x--------------|x2
D|-2---x---4---x---6---x---7---x---2---x----4---(4)---(4)---2---x--------------|
A|-2---x---2---x---4---x---7---x---2---x----2---(2)---(2)---2---x--------------|
E|-0---x-------x-------x---5---x---0---x--------------------0---x--------------|


[INSTRUMENTAL]
   E       B      C#m      A       E        B               E
e|-----x-------x-------x-------x-------x------------------------x--------------|
B|-----x---4---x---5---x-------x-------x------------------------x--------------|
G|-1---x---4---x---6---x---6---x---1---x----4---(4)---(2)---1---x--------------|x4
D|-2---x---4---x---6---x---7---x---2---x----4---(4)---(4)---2---x--------------|
A|-2---x---2---x---4---x---7---x---2---x----2---(2)---(2)---2---x--------------|
E|-0---x-------x-------x---5---x---0---x--------------------0---x--------------|


[BRIDGE]
   E             B           C#m         F#m             E           B
e|-----------x-----------x-----------x---------------x-----------x-----------x|
B|-7h9---9---x---7---7---x---5---5---x---9h10---10---x---9---9---x---7---7---x|
G|-9-----9---x---8---8---x---6---6---x---11-----11---x---9---9---x---8---8---x|
D|-9---------x---9-------x---6-------x---11----------x---9-------x---9-------x|
A|-7---------x---9-------x---4-------x---9-----------x---7-------x---9-------x|
E|-----------x-----------x-----------x---------------x-----------x-----------x|


[CHORUS]
   E       B      C#m      A       E        B               E
e|-----x-------x-------x-------x-------x------------------------x--------------|
B|-----x---4---x---5---x-------x-------x------------------------x--------------|
G|-1---x---4---x---6---x---6---x---1---x----4---(4)---(2)---1---x--------------|x4
D|-2---x---4---x---6---x---7---x---2---x----4---(4)---(4)---2---x--------------|
A|-2---x---2---x---4---x---7---x---2---x----2---(2)---(2)---2---x--------------|
E|-0---x-------x-------x---5---x---0---x--------------------0---x--------------|


************************************
| h   hammer-on
| x   Palm slap
|(n)  Ghost note
************************************

            
            
Suggest correction
Creating personal tab
Creating personal tab
You can edit any tab online and save it as your Personal.

You can edit, replace or remove any tab part or add personal notes – all changes will be seen only by you.

Personal tabs can be accessed anytime from any device, even offline.
Learn more »
comments
print report bad tab
10 comments total. Showing first comments.
+1 reply
nxwhitney 10 Nov 16, 2015 07:00 PM

I'm still new to this, but it sounds like a palm slap works better than a mute note. Is it ignorance in knowing what a mute note is?

+1 reply
skoush 21 Dec 01, 2015 06:30 PM

I think the last part of the pre-chorus should be C#m A B B not C#m A E E

-1 reply
YEIS0N 139 Dec 24, 2015 04:52 AM

didn't like this contribution

guest
You may want to rate the tab now too:
select rating
Wanna post a correction for this tab? Suggest correction