Oops, an error
Loading. Please wait.
We have an official Love Yourself tab made by UG professional guitarists. Check out the tab »
×

Love Yourself tab

version 10
version 10

Whole song

Interactive

Video

60,958 views 48 this week
no commentswrite comment
1 2 3 4 5
x 20
add to favorites
×
Save as Personal and add changes to this tab that will be seen only by you. Learn more ›
×
You can save this tab as Personal to edit and correct it or add notes. All changes will be seen only by you. Learn more »
launch autoscroll
font size
0
reset
how to read this tab
guitar tuner
backing track
0:00
0:00
edit
Autoscroll
slow
fast
+/-
esc
set tempo
stop
Author
Difficulty
[Verse 1]
            E              B/D#          C#m
For all the times that you rain on my parade
e]------------------------------------------------|
B]------------------------------------------------|
G]----------1---1-x--------4---4-x-------6---6-x--|
D]----------2---2-x--------4---4-x-------6---6-x--| *le artistic break (mostly occurring
A]----------2---2-x--------6---6-x-------4---4-x--|  in the last 1/4 of the line.)
E]------------------------------------------------|

            F#m              E            B/D#
And all the clubs you get in using   my   name
e]----------------------------------------------------|
B]----------------------------------------------------|
G]----------2---2-x----------1---1-x------4---4-x-----|
D]----------4---4-x----------2---2-x------4---4-x-----|
A]----------4---4-x----------2---2-x------6---6-x-----|
E]----------------------------------------------------|

              E                  B/D#         C#m
You think you broke my heart, oh girl for goodness' sake
e]-----------------------------------------------------|
B]-----------------------------------------------------|
G]------------1---1-x------------4---4-x------6---6-x--|
D]------------2---2-x------------4---4-x------6---6-x--|
A]------------2---2-x------------6---6-x------4---4-x--|
E]-----------------------------------------------------|

              F#m          E           B/D#
You think I'm crying on my own, well I ain't
e]-----------------------------------------------|
B]-----------------------------------------------|
G]------------2---2-x------1---1-x-----4---4-x---|
D]------------4---4-x------2---2-x-----4---4-x---|
A]------------4---4-x------2---2-x-----6---6-x---|
E]-----------------------------------------------|

[Pre-Chorus]

                   E            B/D#                C#m
And I didn't wanna write a song cause I didn't want anyone thinking I still care

e]--------------------------------------------------------------------|
B]--------------------------------------------------------------------|
G]-----------------1---1-x------4---4-x-------------6---6-x-----------|
D]-----------------2---2-x------4---4-x-------------6---6-x-----------|
A]-----------------2---2-x------6---6-x-------------4---4-x-----------|
E]--------------------------------------------------------------------|

       F#m         E                B/D#
     I don't but,  you still hit my phone up
e]-----------------------------------------------|
B]-----------------------------------------------|
G)-----2---2-x-----1---1-x----------4---4-x------|
D]-----4---4-x-----2---2-x----------4---4-x------|
A]-----4---4-x-----2---2-x----------6---6-x------|
E]-----------------------------------------------|

              E          B/D#             C#m
And baby I be movin'  on  and I think you should be somethin'
e]----------------------------------------------------------|
B]----------------------------------------------------------|
G]------------1---1-x----4---4-x----------6---6-x-----------|
D]------------2---2-x----4---4-x----------6---6-x-----------|
A]------------2---2-x----6---6-x----------4---4-x-----------|
E]----------------------------------------------------------|

              F#m         E                B/D#
I don't wanna hold back,  maybe you should know that
e]----------------------------------------------------|
B]----------------------------------------------------|
G)------------2---2-x-----1---1-x----------4---4-x----|
D]------------4---4-x-----2---2-x----------4---4-x----|
A]------------4---4-x-----2---2-x----------6---6-x----|
E]----------------------------------------------------|

              C#m         A                      E
My mama don't like        you and she likes everyone
e]------------------------------------------------------------|
B]------------------------------------------------------------|
G)------------6---6-x-----2-----x----------------1---1-x---1--|
D]------------6---6-x-----2-----x----------------2---2-x---2--|
A]------------4---4-x-----0-----x----------------2---2-x---2--|
E]------------------------------------------------------------|

            C#m         A                E
And I never like to     admit that I was wrong
e]----------------------------------------------------|
B]----------------------------------------------------|
G)----------6---6-x-----2-----x----------1---1-x---1--|
D]----------6---6-x-----2-----x----------2---2-x---2--|
A]----------4---4-x-----0-----x----------2---2-x---2--|
E]----------------------------------------------------|

                 C#m          A              E                B
And I've been so caught up in my job, didn't see what's going on
e]------------------------------------------------------------------------|
B]------------------------------------------------------------------------|
G)---------------6---6-x------2-----x--------1---1-x----------4-----x-----|
D]---------------6---6-x------2-----x--------2---2-x----------4-----x-----|
A]---------------4---4-x------0-----x--------2---2-x----------2-----x-----|
E]------------------------------------------------------------------------|

          C#m        A           B
And now I know,       I'm better sleeping on my own
e]------------------------------------------------|
B]------------------------------------------------|
G)--------6---6-x----2-----x-----4-4-4-4-x--------|
D]--------6---6-x----2-----x-----4-4-4-4-x--------|
A]--------4---4-x----0-----x-----2-2-2-2-x--------|
E]------------------------------------------------|

[Chorus]

             E        B       C#m       A
Cause if you like the way you look that much
e]----------------------------------------------------|
B]----------------------------------------------------|
G]-----------1---x----4-x-----6---x-----2-x-----------|
D]-----------2---x----4-x-----6---x-----2-x-----------|
A]-----------2---x----2-x-----4---x-----0-x-----------|
E]----------------------------------------------------|

        E                 B         E
Oh baby you should go and love yourself
e]----------------------------------------------------|
B]----------------------------------------------------|
G]------1---x-------------4-x-------1---x-------------|
D]------2---x-------------4-x-------2---x-------------|
A]------2---x-------------2-x-------2---x-------------|
E]----------------------------------------------------|

           E          B         C#m       A
And if you think that I'm still holdin'   on to somethin'
e]----------------------------------------------------|
B]----------------------------------------------------|
G]--(x)----1---x------4-x-------6---x-----2-x---------|
D]--(x)----2---x------4-x-------6---x-----2-x---------|
A]--(x)----2---x------2-x-------4---x-----0-x---------|
E]----------------------------------------------------|

        E                 B         E
        You should go and love yourself
e]----------------------------------------------------|
B]----------------------------------------------------|
G]------1---x-------------4-x-------1---x-------------|
D]------2---x-------------4-x-------2---x-------------|
A]------2---x-------------2-x-------2---x-------------|
E]----------------------------------------------------|

[Verse 2]

             E                B/D#         C#m
But when you told me that you hated my    friends
e]--------------------------------------------------|
B]--------------------------------------------------|
G]-----------1---1-x----------4---4-x------6---6-x--|
D]-----------2---2-x----------4---4-x------6---6-x--|
A]-----------2---2-x----------6---6-x------4---4-x--|
E]--------------------------------------------------|

         F#m              E           B/D#
The only problem was with you and not them
e]------------------------------------------------|
B]------------------------------------------------|
G]-------2---2-x----------1---1-x-----4---4-x-----|
D]-------4---4-x----------2---2-x-----4---4-x-----|
A]-------4---4-x----------2---2-x-----6---6-x-----|
E]------------------------------------------------|

          E                B/D#           C#m
And every time you told me my opinion was wrong
e]-----------------------------------------------------|
B]-----------------------------------------------------|
G]--------1---1-x---------4---4-x---------6---6-x------|
D]--------2---2-x---------4---4-x---------6---6-x------|
A]--------2---2-x---------6---6-x---------4---4-x------|
E]-----------------------------------------------------|

             F#m            E            B/D#
And tried to make me forget where I came from
e]--------------------------------------------------|
B]--------------------------------------------------|
G]----------2---2-x---------1---1-x------4---4-x----|
D]----------4---4-x---------2---2-x------4---4-x----|
A]----------4---4-x---------2---2-x------6---6-x----|
E]--------------------------------------------------|

[Pre-Chorus]

                   E            B/D#                C#m
And I didn't wanna write a song cause I didn't want anyone thinking I still care

e]--------------------------------------------------------------------|
B]--------------------------------------------------------------------|
G]-----------------1---1-x------4---4-x-------------6---6-x-----------|
D]-----------------2---2-x------4---4-x-------------6---6-x-----------|
A]-----------------2---2-x------6---6-x-------------4---4-x-----------|
E]--------------------------------------------------------------------|

       F#m         E                B/D#
     I don't but,  you still hit my phone up
e]-----------------------------------------------|
B]-----------------------------------------------|
G]-----2---2-x-----1---1-x----------4---4-x------|
D]-----4---4-x-----2---2-x----------4---4-x------|
A]-----4---4-x-----2---2-x----------6---6-x------|
E]-----------------------------------------------|

              E          B/D#             C#m
And baby I be movin'  on  and I think you should be somethin'
e]----------------------------------------------------------|
B]----------------------------------------------------------|
G]------------1---1-x----4---4-x----------6---6-x-----------|
D]------------2---2-x----4---4-x----------6---6-x-----------|
A]------------2---2-x----6---6-x----------4---4-x-----------|
E]----------------------------------------------------------|

              F#m         E                B/D#
I don't wanna hold back,  maybe you should know that
e]----------------------------------------------------|
B]----------------------------------------------------|
G]------------2---2-x-----1---1-x----------4---4-x----|
D]------------4---4-x-----2---2-x----------4---4-x----|
A]------------4---4-x-----2---2-x----------6---6-x----|
E]----------------------------------------------------|

              C#m         A                      E
My mama don't like        you and she likes everyone
e]------------------------------------------------------------|
B]------------------------------------------------------------|
G]------------6---6-x-----2-----x----------------1---1-x---1--|
D]------------6---6-x-----2-----x----------------2---2-x---2--|
A]------------4---4-x-----0-----x----------------2---2-x---2--|
E]------------------------------------------------------------|

            C#m         A                E
And I never like to     admit that I was wrong
e]----------------------------------------------------|
B]----------------------------------------------------|
G]----------6---6-x-----2-----x----------1---1-x---1--|
D]----------6---6-x-----2-----x----------2---2-x---2--|
A]----------4---4-x-----0-----x----------2---2-x---2--|
E]----------------------------------------------------|

                 C#m          A              E                B
And I've been so caught up in my job, didn't see what's going on
e]------------------------------------------------------------------------|
B]------------------------------------------------------------------------|
G]---------------6---6-x------2-----x--------1---1-x----------4-----x-----|
D]---------------6---6-x------2-----x--------2---2-x----------4-----x-----|
A]---------------4---4-x------0-----x--------2---2-x----------2-----x-----|
E]------------------------------------------------------------------------|

          C#m        A           B
And now I know,       I'm better sleeping on my own
e]------------------------------------------------|
B]------------------------------------------------|
G]--------6---6-x----2-----x-----4-4-4-4-x--------|
D]--------6---6-x----2-----x-----4-4-4-4-x--------|
A]--------4---4-x----0-----x-----2-2-2-2-x--------|
E]------------------------------------------------|

[Chorus]

             E        B       C#m       A
Cause if you like the way you look that much
e]----------------------------------------------------|
B]----------------------------------------------------|
G]-----------1---x----4-x-----6---x-----2-x-----------|
D]-----------2---x----4-x-----6---x-----2-x-----------|
A]-----------2---x----2-x-----4---x-----0-x-----------|
E]----------------------------------------------------|

        E                 B         E
Oh baby you should go and love yourself
e]----------------------------------------------------|
B]----------------------------------------------------|
G]------1---x-------------4-x-------1---x-------------|
D]------2---x-------------4-x-------2---x-------------|
A]------2---x-------------2-x-------2---x-------------|
E]----------------------------------------------------|

           E          B         C#m       A
And if you think that I'm still holdin'   on to somethin'
e]----------------------------------------------------|
B]----------------------------------------------------|
G]--(x)----1---x------4-x-------6---x-----2-x---------|
D]--(x)----2---x------4-x-------6---x-----2-x---------|
A]--(x)----2---x------2-x-------4---x-----0-x---------|
E]----------------------------------------------------|

        E                 B         E
        You should go and love yourself
e]----------------------------------------------------|
B]----------------------------------------------------|
G]------1---x-------------4-x-------1---x-------------|
D]------2---x-------------4-x-------2---x-------------|
A]------2---x-------------2-x-------2---x-------------|
E]----------------------------------------------------|

[Instrumental/solo]

The instrumental is the same progression as the chorus:
             E        B       C#m       A
e]----------------------------------------------------|
B]----------------------------------------------------|
G]-----------1---x----4-x-----6---x-----2-x-----------|
D]-----------2---x----4-x-----6---x-----2-x-----------|
A]-----------2---x----2-x-----4---x-----0-x-----------|
E]----------------------------------------------------|

        E                 B         E
e]----------------------------------------------------|
B]----------------------------------------------------|
G]------1---x-------------4-x-------1---x-------------|
D]------2---x-------------4-x-------2---x-------------|
A]------2---x-------------2-x-------2---x-------------|
E]----------------------------------------------------|

           E          B         C#m       A
e]----------------------------------------------------|
B]----------------------------------------------------|
G]--(x)----1---x------4-x-------6---x-----2-x---------|
D]--(x)----2---x------4-x-------6---x-----2-x---------|
A]--(x)----2---x------2-x-------4---x-----0-x---------|
E]----------------------------------------------------|

        E                 B         E
e]----------------------------------------------------|
B]----------------------------------------------------|
G]------1---x-------------4-x-------1---x-------------|
D]------2---x-------------4-x-------2---x-------------|
A]------2---x-------------2-x-------2---x-------------|
E]----------------------------------------------------|


[Bridge]

            E              B/D#         C#m
For all the times that you made me feel small
e]-----------------------------------------------|
B]-----------------------------------------------|
G]----------1---1-x--------4---4-x------6---6-x--|
D]----------2---2-x--------4---4-x------6---6-x--|
A]----------2---2-x--------6---6-x------4---4-x--|
E]-----------------------------------------------|

          F#m              E          B/D#
I fell in love, now I fear nothin' at all
e]----------------------------------------------------|
B]----------------------------------------------------|
G]--------2---2-x----------1---1-x----4---4-x---------|
D]--------4---4-x----------2---2-x----4---4-x---------|
A]--------4---4-x----------2---2-x----6---6-x---------|
E]----------------------------------------------------|

        E                B/D#         C#m
I never felt so low when I was vulnerable
e]---------------------------------------------|
B]---------------------------------------------|
G]------1---1-x----------4---4-x------6---6-x--|
D]------2---2-x----------4---4-x------6---6-x--|
A]------2---2-x----------6---6-x------4---4-x--|
E]---------------------------------------------|

        F#m             E             B/D#
Was I a fool to let you break down my walls?
e]-----------------------------------------------|
B]-----------------------------------------------|
G]------2---2-x---------1---1-x-------4---4-x----|
D]------4---4-x---------2---2-x-------4---4-x----|
A]------4---4-x---------2---2-x-------6---6-x----|
E]-----------------------------------------------|

[Chorus]

             E        B       C#m       A
Cause if you like the way you look that much
e]----------------------------------------------------|
B]----------------------------------------------------|
G]-----------1---x----4-x-----6---x-----2-x-----------|
D]-----------2---x----4-x-----6---x-----2-x-----------|
A]-----------2---x----2-x-----4---x-----0-x-----------|
E]----------------------------------------------------|

        E                 B         E
Oh baby you should go and love yourself
e]----------------------------------------------------|
B]----------------------------------------------------|
G]------1---x-------------4-x-------1---x-------------|
D]------2---x-------------4-x-------2---x-------------|
A]------2---x-------------2-x-------2---x-------------|
E]----------------------------------------------------|

           E          B         C#m       A
And if you think that I'm still holdin'   on to somethin'
e]----------------------------------------------------|
B]----------------------------------------------------|
G]--(x)----1---x------4-x-------6---x-----2-x---------|
D]--(x)----2---x------4-x-------6---x-----2-x---------|
A]--(x)----2---x------2-x-------4---x-----0-x---------|
E]----------------------------------------------------|

        E                 B         E
        You should go and love yourself
e]----------------------------------------------------|
B]----------------------------------------------------|
G]------1---x-------------4-x-------1---x-------------|
D]------2---x-------------4-x-------2---x-------------|
A]------2---x-------------2-x-------2---x-------------|
E]----------------------------------------------------|

   --And again--

             E        B       C#m       A
Cause if you like the way you look that much
e]----------------------------------------------------|
B]----------------------------------------------------|
G]-----------1---x----4-x-----6---x-----2-x-----------|
D]-----------2---x----4-x-----6---x-----2-x-----------|
A]-----------2---x----2-x-----4---x-----0-x-----------|
E]----------------------------------------------------|

        E                 B         E
Oh baby you should go and love yourself
e]----------------------------------------------------|
B]----------------------------------------------------|
G]------1---x-------------4-x-------1---x-------------|
D]------2---x-------------4-x-------2---x-------------|
A]------2---x-------------2-x-------2---x-------------|
E]----------------------------------------------------|

           E          B         C#m       A
And if you think that I'm still holdin'   on to somethin'
e]----------------------------------------------------|
B]----------------------------------------------------|
G]--(x)----1---x------4-x-------6---x-----2-x---------|
D]--(x)----2---x------4-x-------6---x-----2-x---------|
A]--(x)----2---x------2-x-------4---x-----0-x---------|
E]----------------------------------------------------|

        E                 B         E
        You should go and love yourself
e]----------------------------------------------------|
B]----------------------------------------------------|
G]------1---x-------------4-x-------1---x-------------|
D]------2---x-------------4-x-------2---x-------------|
A]------2---x-------------2-x-------2---x-------------|
E]----------------------------------------------------|


**********************

x   Dead note

**********************
Suggest correction
Creating personal tab
Creating personal tab
You can edit any tab online and save it as your Personal.

You can edit, replace or remove any tab part or add personal notes – all changes will be seen only by you.

Personal tabs can be accessed anytime from any device, even offline.
Learn more »
comments
print report bad tab
guest
You may want to rate the tab now too:
select rating
Wanna post a correction for this tab? Suggest correction