Oops, an error
Loading. Please wait.
We have an official Love Yourself tab made by UG professional guitarists. Check out the tab »
×

Love Yourself tab

version 11
version 11

Whole song

Interactive

Video

22,420 views 48 this week
6 commentsread comments
1 2 3 4 5
x 28
add to favorites
×
Save as Personal and add changes to this tab that will be seen only by you. Learn more ›
×
You can save this tab as Personal to edit and correct it or add notes. All changes will be seen only by you. Learn more »
launch autoscroll
font size
0
reset
how to read this tab
guitar tuner
backing track
0:00
0:00
edit
Autoscroll
slow
fast
+/-
esc
set tempo
stop
Author
Difficulty
About this tab version
Mine has the finger style melody and it comes with lyrics. Was this info helpful? Yes No
-------------------------------------------------------------------------------
                             Love yourself - Justin Bieber
-------------------------------------------------------------------------------
Tabbed by:Cole Baumgarten
E-mail: colerbaumgarten@hotmail.com

Tuning: Standard

[Verse 1]

e|---------------------------------------------------------------------------|
B|----9--9---7--7---5--5---10--10---9--9---7--7------------------------------|
G|---------x------x------x--------x------x------x----------------------------|
D|---------x------x------x--------x------x------x----------------------------|
A|----7--7---6--6---4--4----9--9----7--7---6--6------------------------------|
E|---------------------------------------------------------------------------|
All the times that you rain on my parade And all the clubs you get in using my name

e|---------------------------------------------------------------------------|
B|----9--9---7--7---5--5---10--10---9--9---7--7------------------------------|
G|---------x------x------x--------x------x------x----------------------------|
D|---------x------x------x--------x------x------x----------------------------|
A|----7--7---6--6---4--4----9--9----7--7---6--6------------------------------|
E|---------------------------------------------------------------------------|
You think you broke my heart Ohhh girl for goodness sake You think I'm crying Oh my ohhh, well I ain't!


[Pre-Chorus]

e|---------------------------------------------------------------------------|
B|----9--9---7--7---5--5---10--10---9--9---7--7------------------------------|
G|---------x------x------x--------x------x------x----------------------------|
D|---------x------x------x--------x------x------x----------------------------|
A|----7--7---6--6---4--4----9--9----7--7---6--6------------------------------|
E|---------------------------------------------------------------------------|
And I didn't wanna write a song 'Cause I didn't want anyone thinking I still care, I don't But, 
you still hit my phone up

e|---------------------------------------------------------------------------|
B|----9--9---7--7---5--5---10--10---9--9---7--7------------------------------|
G|---------x------x------x--------x------x------x----------------------------|
D|---------x------x------x--------x------x------x----------------------------|
A|----7--7---6--6---4--4----9--9----7--7---6--6------------------------------|
E|---------------------------------------------------------------------------|
And baby I be moving on And I think you should be somethin' I don't wanna hold back
Maybe you should know that

e|---------------------------------------------------------------------------|
B|---------------------------------------------------------------------------|
G|----6--6--x--2--x--1--1-----1----------------------------------------------|
D|----6--6--x--2--x--2--2--x--2--x-------------------------------------------|
A|----4--4--x--0--x--2--2--x--2--x-------------------------------------------|
E|-------------------0--0--x--0--x-------------------------------------------|
My mama don't like you and she like's everyone

e|---------------------------------------------------------------------------|
B|---------------------------------------------------------------------------|
G|----6--6--x--2--x--1--1-----1----------------------------------------------|
D|----6--6--x--2--x--2--2--x--2--x-------------------------------------------|
A|----4--4--x--0--x--2--2--x--2--x-------------------------------------------|
E|-------------------0--0--x--0--x-------------------------------------------|
And I never like to admit that I was wrong

e|---------------------------------------------------------------------------|
B|---------------------------------------------------------------------------|
G|----6--6--x--2--x--1--1-----4----------------------------------------------|
D|----6--6--x--2--x--2--2--x--4--x-------------------------------------------|
A|----4--4--x--0--x--2--2--x--2--x-------------------------------------------|
E|-------------------0--0--x-----x-------------------------------------------|
And I've been so caught up in my job Didn't see what's going on

e|---------------------------------------------------------------------------|
B|---------------------------------------------------------------------------|
G|----6--6--x--2--x--4-4-4-4-4-----------------------------------------------|
D|----6--6--x--2--x--4-4-4-4-4-x---------------------------------------------|
A|----4--4--x--0--x--2-2-2-2-2-x---------------------------------------------|
E|-----------------------------x---------------------------------------------|
But now I know I'm better sleeping on my own


[Chorus]

e|---------------------------------------------------------------------------|
B|---------------------------------------------------------------------------|
G|-------x--4--x--6--x--2--x----1--x--2-----1--x-----------------------------|
D|----2--x--4--x--6--x--2--x----2--x--2--x--2--x-----------------------------|
A|----2--x--2--x--4--x--0--x----2--x--0--x--2--x-----------------------------|
E|----0-------------------------0--------x--0--x-----------------------------|
'Cause if you like the way you look that much Ohhhh baby you should go and love yourself

e|---------------------------------------------------------------------------|
B|---------------------------------------------------------------------------|
G|-------x--4--x--6--x--2--x----1--x--2-----1--x-----------------------------|
D|----2--x--4--x--6--x--2--x----2--x--2--x--2--x-----------------------------|
A|----2--x--2--x--4--x--0--x----2--x--0--x--2--x-----------------------------|
E|----0-------------------------0--------x--0--x-----------------------------|
And if you think that I'm still holdin' on to somethin' You should go and love yourself


[Verse 2]

e|---------------------------------------------------------------------------|
B|----9--9---7--7---5--5---10--10---9--9---7--7------------------------------|
G|---------x------x------x--------x------x------x----------------------------|
D|---------x------x------x--------x------x------x----------------------------|
A|----7--7---6--6---4--4----9--9----7--7---6--6------------------------------|
E|---------------------------------------------------------------------------|
When you told me that you hated my friends The only problem was with you and not them

e|---------------------------------------------------------------------------|
B|----9--9---7--7---5--5---10--10---9--9---7--7------------------------------|
G|---------x------x------x--------x------x------x----------------------------|
D|---------x------x------x--------x------x------x----------------------------|
A|----7--7---6--6---4--4----9--9----7--7---6--6------------------------------|
E|---------------------------------------------------------------------------|
And every time you told me my opinion was wrong And tried to make me forget where I came from


[Pre-Chorus]

e|---------------------------------------------------------------------------|
B|----9--9---7--7---5--5---10--10---9--9---7--7------------------------------|
G|---------x------x------x--------x------x------x----------------------------|
D|---------x------x------x--------x------x------x----------------------------|
A|----7--7---6--6---4--4----9--9----7--7---6--6------------------------------|
E|---------------------------------------------------------------------------|
And I didn't wanna write a song Cause I didn't want anyone thinking I still care, I don't But, 
you still hit my phone up

e|---------------------------------------------------------------------------|
B|----9--9---7--7---5--5---10--10---9--9---7--7------------------------------|
G|---------x------x------x--------x------x------x----------------------------|
D|---------x------x------x--------x------x------x----------------------------|
A|----7--7---6--6---4--4----9--9----7--7---6--6------------------------------|
E|---------------------------------------------------------------------------|
And baby I be moving on And I think you should be somethin' I don't wanna hold back Maybe you 
should know that

e|---------------------------------------------------------------------------|
B|---------------------------------------------------------------------------|
G|----6--6--x--2--x--1--1-----1----------------------------------------------|
D|----6--6--x--2--x--2--2--x--2--x-------------------------------------------|
A|----4--4--x--0--x--2--2--x--2--x-------------------------------------------|
E|-------------------0--0--x--0--x-------------------------------------------|
My mama don't like you and she like's everyone

e|---------------------------------------------------------------------------|
B|---------------------------------------------------------------------------|
G|----6--6--x--2--x--1--1-----1----------------------------------------------|
D|----6--6--x--2--x--2--2--x--2--x-------------------------------------------|
A|----4--4--x--0--x--2--2--x--2--x-------------------------------------------|
E|-------------------0--0--x--0--x-------------------------------------------|
And I never like to admit that I was wrong

e|---------------------------------------------------------------------------|
B|---------------------------------------------------------------------------|
G|----6--6--x--2--x--1--1-----4----------------------------------------------|
D|----6--6--x--2--x--2--2--x--4--x-------------------------------------------|
A|----4--4--x--0--x--2--2--x--2--x-------------------------------------------|
E|-------------------0--0--x-----x-------------------------------------------|
And I've been so caught up in my job, didn't see what's going on

e|---------------------------------------------------------------------------|
B|---------------------------------------------------------------------------|
G|----6--6--x--2--x--4-4-4-4-4-----------------------------------------------|
D|----6--6--x--2--x--4-4-4-4-4-x---------------------------------------------|
A|----4--4--x--0--x--2-2-2-2-2-x---------------------------------------------|
E|-----------------------------x---------------------------------------------|
And now I know, I'm better sleeping on my own


[Chorus]

e|---------------------------------------------------------------------------|
B|---------------------------------------------------------------------------|
G|-------x--4--x--6--x--2--x----1--x--2-----1--x-----------------------------|
D|----2--x--4--x--6--x--2--x----2--x--2--x--2--x-----------------------------|
A|----2--x--2--x--4--x--0--x----2--x--0--x--2--x-----------------------------|
E|----0-------------------------0--------x--0--x-----------------------------|
'Cause if you like the way you look that much Oh baby you should go and love yourself

e|---------------------------------------------------------------------------|
B|---------------------------------------------------------------------------|
G|-------x--4--x--6--x--2--x----1--x--2-----1--x-----------------------------|
D|----2--x--4--x--6--x--2--x----2--x--2--x--2--x-----------------------------|
A|----2--x--2--x--4--x--0--x----2--x--0--x--2--x-----------------------------|
E|----0-------------------------0--------x--0--x-----------------------------|
And if you think that I'm still holdin' on to somethin' You should go and love yourself

e|---------------------------------------------------------------------------|
B|---------------------------------------------------------------------------|
G|-------x--4--x--6--x--2--x----1--x--2-----1--x-----------------------------|
D|----2--x--4--x--6--x--2--x----2--x--2--x--2--x-----------------------------|
A|----2--x--2--x--4--x--0--x----2--x--0--x--2--x-----------------------------|
E|----0-------------------------0--------x--0--x-----------------------------|

e|---------------------------------------------------------------------------|
B|---------------------------------------------------------------------------|
G|-------x--4--x--6--x--2--x----1--x--2-----1--x-----------------------------|
D|----2--x--4--x--6--x--2--x----2--x--2--x--2--x-----------------------------|
A|----2--x--2--x--4--x--0--x----2--x--0--x--2--x-----------------------------|
E|----0-------------------------0--------x--0--x-----------------------------|


[Bridge]

e|---------------------------------------------------------------------------|
B|----9--9---7--7---5--5---10--10---9--9---7--7------------------------------|
G|---------x------x------x--------x------x------x----------------------------|
D|---------x------x------x--------x------x------x----------------------------|
A|----7--7---6--6---4--4----9--9----7--7---6--6------------------------------|
E|---------------------------------------------------------------------------|
For all the times that you made me feel small I fell in love now I fear nothin' at all

e|---------------------------------------------------------------------------|
B|----9--9---7--7---5--5---10--10---9--9---7--7------------------------------|
G|---------x------x------x--------x------x------x----------------------------|
D|---------x------x------x--------x------x------x----------------------------|
A|----7--7---6--6---4--4----9--9----7--7---6--6------------------------------|
E|---------------------------------------------------------------------------|
I never felt so low when I was vulnerable Was I a fool to let you break down my walls?


[Chorus]

e|---------------------------------------------------------------------------|
B|---------------------------------------------------------------------------|
G|-------x--4--x--6--x--2--x----1--x--2-----1--x-----------------------------|
D|----2--x--4--x--6--x--2--x----2--x--2--x--2--x-----------------------------|
A|----2--x--2--x--4--x--0--x----2--x--0--x--2--x-----------------------------|
E|----0-------------------------0--------x--0--x-----------------------------|
'Cause if you like the way you look that much Oh baby you should go and love yourself

e|---------------------------------------------------------------------------|
B|---------------------------------------------------------------------------|
G|-------x--4--x--6--x--2--x----1--x--2-----1--x-----------------------------|
D|----2--x--4--x--6--x--2--x----2--x--2--x--2--x-----------------------------|
A|----2--x--2--x--4--x--0--x----2--x--0--x--2--x-----------------------------|
E|----0-------------------------0--------x--0--x-----------------------------|
And if you think that I'm still holdin' on to somethin' You should go and love yourself

e|---------------------------------------------------------------------------|
B|---------------------------------------------------------------------------|
G|-------x--4--x--6--x--2--x----1--x--2-----1--x-----------------------------|
D|----2--x--4--x--6--x--2--x----2--x--2--x--2--x-----------------------------|
A|----2--x--2--x--4--x--0--x----2--x--0--x--2--x-----------------------------|
E|----0-------------------------0--------x--0--x-----------------------------|
'Cause if you like the way you look that much Oh baby you should go and love yourself

e|---------------------------------------------------------------------------|
B|---------------------------------------------------------------------------|
G|-------x--4--x--6--x--2--x----1--x--2-----1--------------------------------|
D|----2--x--4--x--6--x--2--x----2--x--2--x--2--------------------------------|
A|----2--x--2--x--4--x--0--x----2--x--0--x--2--------------------------------|
E|----0-------------------------0--------x--0--------------------------------|
And if you think that I'm still holdin' on to somethin' You should go and love yourself



************************************
 
| x   Mute note 

************************************

            
            
Suggest correction
Creating personal tab
Creating personal tab
You can edit any tab online and save it as your Personal.

You can edit, replace or remove any tab part or add personal notes – all changes will be seen only by you.

Personal tabs can be accessed anytime from any device, even offline.
Learn more »
comments
print report bad tab
6 comments total. Showing first comments.
0 reply
claudiasanzn 10 Dec 21, 2015 03:37 AM

great tab! spot on

0 reply
guadalmena 10 Jan 16, 2016 11:14 AM

This tab was "stolen" from this video guitar lesson: https://youtu.be/yTvXJFOkEU0

guest
You may want to rate the tab now too:
select rating
Wanna post a correction for this tab? Suggest correction