Oops, an error
Loading. Please wait.
We have an official Love Yourself tab made by UG professional guitarists. Check out the tab »
×

Love Yourself tab

version 2
version 2

Whole song

Interactive

Video

95,455 views 198 this week
5 commentsread comments
1 2 3 4 5
x 72
add to favorites
×
Save as Personal and add changes to this tab that will be seen only by you. Learn more ›
×
You can save this tab as Personal to edit and correct it or add notes. All changes will be seen only by you. Learn more »
launch autoscroll
font size
0
reset
how to read this tab
guitar tuner
backing track
0:00
0:00
edit
Autoscroll
slow
fast
+/-
esc
set tempo
stop
Tabbed by: mBouds

Tuning: Standard
Capo: 4th Fret

You can include the added "()" hammer-on notes where you please, but he changes this often, so it's mainly
just wherever it "feels" right.
I've based this tab off his studio recording on his album 'Purpose'.


[Verse]

     C         G/B      Am             Dm       C        G/B
E|------0--0-x--------x--------x------x--1--1--x--0--0--x--------x-----x|
B|-----------x--3--3--x--1--1--x------x--------x--------x--3--3--x-----x|
G|-----------x--------x--------x------x--------x--------x--------x-----x|
D|-----------x--------x--------x------x--0-----x--------x--------x-----x|
A|--(2/)3----x--2-----x--0-----x------x--------x--3-----x--2-----x-----x|
E|-----------x--------x--------x------x--------x--------x--------x-----x|


[Pre-Chorus]

    Am        F       C       C       Am       F       C       C
E|---------x-------x-------x-------x--------x-------x-------x-------x|
B|---------x-------x-------x-------x--------x-------x-------x-------x|
G|---------x-------x-------x-------x--------x-------x-------x-------x|
D|----2----x-------x----2--x-------x----2---x-------x----2--x-------x|
A|--0------x-------x--3----x--3----x--0-----x-------x--3----x--3----x|
E|---------x--1----x-------x-------x--------x--1----x-------x-------x|
"My momma don't like you and she likes everyone..."

    Am        F       C       G       Am       F       G
E|---------x-------x-------x-------x--------x-------x-----------|
B|---------x-------x-------x-------x--------x-------x-----------|
G|---------x-------x-------x-------x--------x-------x-----------|
D|----2----x-------x----2--x-------x----2---x-------x--0-0-0-0-0|
A|--0------x-------x--3----x-------x--0-----x-------x--2-2-2-2-2|
E|---------x--1----x-------x--3----x--------x--1----x--3-3-3-3-3|


[Chorus]

    C        G     Am     F     C        G     C
E|-----x--------x------x-----x-----x--------x-----x-----x|
B|--1--x-----1--x--1---x--1--x--1--x-----1--x--1--x-----x|
G|--0--x-----0--x--2---x--2--x--0--x-----0--x--0--x-----x|
D|-----x--------x------x-----x-----x--------x-----x-----x|
A|--3--x--------x--0---x-----x--3--x--------x--3--x-----x|
E|-----x-----3--x------x--1--x-----x-----3--x-----x-----x|


***********************
| x   Dead note
***********************

            
            
Suggest correction
Creating personal tab
Creating personal tab
You can edit any tab online and save it as your Personal.

You can edit, replace or remove any tab part or add personal notes – all changes will be seen only by you.

Personal tabs can be accessed anytime from any device, even offline.
Learn more »
comments
print report bad tab
5 comments total. Showing first comments.
+1 reply
TrisVampsDrums 607 Nov 16, 2015 10:52 PM

Amazing tab! Very accurate! Love it!

0 reply
ohitsmegz 10 Nov 28, 2015 04:34 PM

is the pre chorus "and I didnt wanna write a song" or "my momma dont like you?"

+1 reply
vigdis.tong 38 Dec 19, 2015 02:33 PM

This is fantastic and easy to play too!

guest
You may want to rate the tab now too:
select rating
Wanna post a correction for this tab? Suggest correction