Oops, an error
Loading. Please wait.
We have an official Love Yourself tab made by UG professional guitarists. Check out the tab »
×

Love Yourself tab

version 5
version 5

Whole song

Interactive

Video

34,138 views 63 this week
no commentswrite comment
1 2 3 4 5
x 11
add to favorites
×
Save as Personal and add changes to this tab that will be seen only by you. Learn more ›
×
You can save this tab as Personal to edit and correct it or add notes. All changes will be seen only by you. Learn more »
launch autoscroll
font size
0
reset
how to read this tab
guitar tuner
backing track
0:00
0:00
edit
Autoscroll
slow
fast
+/-
esc
set tempo
stop
-------------------------------------------------------------------------------
                          LOVE YOURSELF - Justin Bieber
-------------------------------------------------------------------------------
Tabbed by: Anh Tran
E-mail: thuzeetran@gmail.com

Tuning: capo on 4th


[Verse:]
e|-----------x---------x---------x--------1--1--x---0--0--x---------x--------|
B|---3h5--3--x---3--3--x---1--1--x--------------x---------x---3--3--x--------|
G|-----------x---------x---------x--------------x---------x---------x--------|
D|-----------x---------x---------x--------0--0--x---------x---------x--------|
A|---3----3--x---2--2--x---0--0--x--------------x---3--3--x---2--2--x--------|
E|-----------x---------x---------x--------------x---------x---------x--------| x4

For all the times that you rain on my parade
And all the clubs you get in using my name
You think you broke my heart, oh girl for goodness sake
You think I'm crying, oh my oh, well I ain't

And I didn't wanna write a song cause I didn't want anyone thinking I still care
I don't but, you still hit my phone up
And baby I be movin' on and I think you should be somethin'
I don't wanna hold back, maybe you should know that


[Pre-chorus:]
              Am       F                  C
My mama don't like you and she likes everyone
            Am      F                C
And I never like to admit that I was wrong
                 Am           F              C                G
And I've been so caught up in my job, didn't see what's going on
          Am   F           G
And now I know, I'm better sleeping on my own


[Chorus:]
             C        G       Am        F
Cause if you like the way you look that much
        C                 G        C
Oh baby you should go and love yourself
           C          G         Am         F
And if you think that I'm still holdin' on to somethin'
C                 G        C
You should go and love yourself


[Verse:]
e|-----------x---------x---------x--------1--1--x---0--0--x---------x--------|
B|---3h5--3--x---3--3--x---1--1--x--------------x---------x---3--3--x--------|
G|-----------x---------x---------x--------------x---------x---------x--------|
D|-----------x---------x---------x--------0--0--x---------x---------x--------|
A|---3----3--x---2--2--x---0--0--x--------------x---3--3--x---2--2--x--------|
E|-----------x---------x---------x--------------x---------x---------x--------| x4

But when you told me that you hated my friends
The only problem was with you and not them
And every time you told me my opinion was wrong
And tried to make me forget where I came from

And I didn't wanna write a song cause I didn't want anyone thinking I still care
I don't but, you still hit my phone up
And baby I be movin' on and I think you should be somethin'
I don't wanna hold back, maybe you should know that


[Pre-chorus:] 
              Am       F                  C
My mama don't like you and she likes everyone
            Am      F                C
And I never like to admit that I was wrong
                 Am           F              C                G
And I've been so caught up in my job, didn't see what's going on
          Am   F           G
And now I know, I'm better sleeping on my own


[Chorus:]
             C        G       Am        F
Cause if you like the way you look that much
        C                 G        C
Oh baby you should go and love yourself
           C          G         Am         F
And if you think that I'm still holdin' on to somethin'
C                 G        C
You should go and love yourself


[Instrumental break:]
C  G  Am  F
C  G  C       x2


[Bridge:]
e|-----------x---------x---------x--------1--1--x---0--0--x---------x--------|
B|---3h5--3--x---3--3--x---1--1--x--------------x---------x---3--3--x--------|
G|-----------x---------x---------x--------------x---------x---------x--------|
D|-----------x---------x---------x--------0--0--x---------x---------x--------|
A|---3----3--x---2--2--x---0--0--x--------------x---3--3--x---2--2--x--------|
E|-----------x---------x---------x--------------x---------x---------x--------| x2

For all the times that you've made me feel small
I fell in love, now I feel nothin' at all
Had never felt so low when I was vulnerable
Was I a fool to let you break down my walls?


[Chorus:]
             C        G       Am        F
Cause if you like the way you look that much
        C                 G        C
Oh baby you should go and love yourself
           C          G         Am         F
And if you think that I'm still holdin' on to somethin'
C                 G        C
You should go and love yourself        x2



************************************

| x  Dead note
| h  Hammer-on

************************************

            
            
Suggest correction
Creating personal tab
Creating personal tab
You can edit any tab online and save it as your Personal.

You can edit, replace or remove any tab part or add personal notes – all changes will be seen only by you.

Personal tabs can be accessed anytime from any device, even offline.
Learn more »
comments
print report bad tab
guest
You may want to rate the tab now too:
select rating
Wanna post a correction for this tab? Suggest correction