Oops, an error
Loading. Please wait.
We have an official Love Yourself tab made by UG professional guitarists. Check out the tab »
×

Love Yourself tab

version 7
version 7

Whole song

Interactive

Video

12,857 views 51 this week
no commentswrite comment
1 2 3 4 5
x 4
add to favorites
×
Save as Personal and add changes to this tab that will be seen only by you. Learn more ›
×
You can save this tab as Personal to edit and correct it or add notes. All changes will be seen only by you. Learn more »
launch autoscroll
font size
0
reset
how to read this tab
guitar tuner
backing track
0:00
0:00
edit
Autoscroll
slow
fast
+/-
esc
set tempo
stop
Author
Difficulty
----------------------------------------------------------------------------------------------------------
                             Love Yourself - Justin Bieber ft. Ed Sheeran
----------------------------------------------------------------------------------------------------------
Tabbed by: Jaimee Anne Manalo
E-mail: jaimeeanne@yahoo.com

This will be my first time making tabs in this website, so don't hesitate to correct my mistakes if I made
one. Enjoy!

Tuning:EADGBe
No Capo

[Verse]

For all the times that you rain on my parade...
e|-------x-------x-------x---x---------x-------x-------x----|
B|--8/9--x--7-7--x--5-5--x---x--10-10--x--9-9--x--7-7--x----|
G|-------x-------x-------x---x---------x-------x-------x----|
D|-------x-------x-------x---x---------x-------x-------x----|  (Repeat 4x)
A|-------x--6----x--4----x---x--9------x--7----x--6----x----|
E|--0----x-------x-------x---x---------x-------x-------x----|
     ^ the slide is optional


[Pre-Chorus]

My mama don't like you...
e|--------x----------x-------------x-------------x---------x------------x--------|
B|--------x----------x-------------x-------------x---------x------------x--------|
G|--6--6--x----------x-------------x-------6--6--x---------x------------x--------|
D|--6--6--x---7---7--x--2--2----2--x-------6--6--x--7---7--x--2--2----2-x--------|
A|--4-----x---7---7--x--2--2----2--x-------4-----x--7---7--x--2--2----2-x--------|
E|--------x---5------x--0-------0--x-------------x--5------x--0-------0-x--------|

e|--------x----------x--------x--------x-------------x---------------------------|
B|--------x----------x--------x--------x-------------x---------------------------|
G|--6--6--x----------x--------x--4--4--x-------6--6--x---------------------------|
D|--6--6--x---7---7--x--2--2--x--4--4--x-------6--6--x--7--7--7-----99999--------|
A|--4-----x---7---7--x--2--2--x--2-----x-------4-----x--7--7--7-----99999--------|
E|--------x---5------x--0-----x--------x-------------x--5-----5--/--77777--------|


[Chorus]

Cause if you like the way...
e|-----x-------x------x-------x----------x-----x---------------------------------|
B|-----x-------x------x-------x----------x-----x--0------------------------------|
G|--7--x-------x------x-------x-------7--x-----x--1------------------------------|
D|--7--x----9--x--11--x----7--x-------7--x--9--x--2------------------------------|   (Repeat 2x)
A|--9--x----9--x--11--x----7--x-------9--x--9--x--2------------------------------|
E|-----x----7--x--9---x----5--x----------x--7--x--0------------------------------|


[Repeat Verse, Pre chorus, Chorus]


[Bridge]

e|-----x-------x------x-------x----------x-----x---------------------------------|
B|-----x-------x------x-------x----------x-----x--0------------------------------|
G|--7--x-------x------x-------x-------7--x-----x--1------------------------------|
D|--7--x----9--x--11--x----7--x-------7--x--9--x--2------------------------------|   (Repeat 2x)
A|--9--x----9--x--11--x----7--x-------9--x--9--x--2------------------------------|
E|-----x----7--x--9---x----5--x----------x--7--x--0------------------------------|

This is the tabs for the trumpet solo (NOTE: this is optional, if you don't want to play this you can just
play the tabs above)

e|--7---7-------------7---7-----------7---7----------------------------------|
B|----9---9-7-----------9---9-7--9------9---9-7--10-9-7----------------------|
G|-----------9-9---------------9---------------9--------9--9-----------------|
D|---------------------------------------------------------------------------|
A|---------------------------------------------------------------------------|
E|---------------------------------------------------------------------------|


[Repeat Verse, Chorus 2x]

************************************

| /   slide up
| x   Mute note

************************************

            
            
Suggest correction
Creating personal tab
Creating personal tab
You can edit any tab online and save it as your Personal.

You can edit, replace or remove any tab part or add personal notes – all changes will be seen only by you.

Personal tabs can be accessed anytime from any device, even offline.
Learn more »
comments
print report bad tab
guest
You may want to rate the tab now too:
select rating
Wanna post a correction for this tab? Suggest correction