Oops, an error
Loading. Please wait.
We have an official Love Yourself tab made by UG professional guitarists. Check out the tab »
×

Love Yourself tab

version 8
version 8

Whole song

Interactive

Video

713,528 views 2,919 this week
32 commentsread comments
1 2 3 4 5
x 465
add to favorites
×
Save as Personal and add changes to this tab that will be seen only by you. Learn more ›
×
You can save this tab as Personal to edit and correct it or add notes. All changes will be seen only by you. Learn more »
launch autoscroll
font size
0
reset
how to read this tab
guitar tuner
backing track
0:00
0:00
edit
Autoscroll
slow
fast
+/-
esc
set tempo
stop
Author
Difficulty
--------------------------------------------------------------------------------
VIDEO LESSON ON PLAYING THIS SONG -  https://www.youtube.com/watch?v=Gb50IDe1fRo
--------------------------------------------------------------------------------


[Verse]

   E               B/D#             C#m 
e|---------x---------------x------|---------x---------------x------|
B|-7h9---9-x-------7-----7-x------|-5-----5-x---------------x------|
G|---------x---------------x------|---------x---------------x------|
D|---------x---------------x------|---------x---------------x------|
A|---------x-------6-------x------|-4-------x---------------x------|
E|-0-------x---------------x------|---------x---------------x------|
   1   +   2   +   3   +   4   +    1   +   2   +   3   +   4   +   

    F#m            E                B/D#         
e|---------x---------------x------|---------x---------------x------|
B|-10---10-x-------9-----9-x------|-7-----7-x---------------x------|
G|---------x---------------x------|---------x---------------x------|
D|---------x---------------x------|---------x---------------x------|
A|-9-------x-------7-------x------|-6-------x---------------x------|
E|---------x---------------x------|---------x---------------x------|
   1   +   2   +   3   +   4   +    1   +   2   +   3   +   4   +      


[Pre-Chorus]

   C#m         A                    E
e|---------x---------------x------|---------x---------------x------|
B|---------x---------------x------|---------x---------------x------|
G|-6-----6-x---2-----------x------|-1-----1-x---1-----------x------| x2
D|-6-----6-x---2-----------x------|-2-----2-x---2-----------x------|  
A|-4-------x---0-----------x------|---------x---------------x------|
E|---------x---------------x------|-0-------x---0------------------|    
   1   +   2   +   3   +   4   +    1   +   2   +   3   +   4   +   

   C#m         A                    E           B
e|---------x---------------x------|---------x---------------x------|
B|---------x---------------x------|---------x---------------x------|
G|-6-----6-x---2-----------x------|-1-----1-x---4-----------x------|
D|-6-----6-x---2-----------x------|-2-----2-x---4-----------x------|
A|-4-------x---0-----------x------|---------x---2-----------x------|
E|---------x---------------x------|-0-------x----------------------|
   1   +   2   +   3   +   4   +    1   +   2   +   3   +   4   +   

   C#m         A                    B           
e|---------x---------------x------|--------------------------------|
B|---------x---------------x------|--------------------------------|
G|-6-----6-x---2-----------x------|-4---4---4---4---4--------------|
D|-6-----6-x---2-----------x------|-4---4---4---4---4--------------|
A|-4-------x---0-----------x------|-2---2---2---2---2--------------|
E|---------x---------------x------|--------------------------------|
   1   +   2   +   3   +   4   +    1   +   2   +   3   +   4   +   


[Chorus]

   E                   B            C#m                 A
e|---------x---------------x------|---------x---------------x------|
B|---------x---------------x------|---------x---------------x------|
G|-1-------x-----------4---x------|-6-------x-----------2---x------|
D|-2-------x-----------4---x------|-6-------x-----------2---x------|
A|---------x-----------2---x------|-4-------x-----------0---x------|
E|-0-------x---------------x------|---------x----------------------|
   1   +   2   +   3   +   4   +    1   +   2   +   3   +   4   +   

   E                   B            E
e|---------x---------------x------|---------x---------------x------|
B|---------x---------------x------|---------x---------------x------|
G|-1-------x-----------4---x------|-1-------x---------------x------|
D|-2-------x-----------4---x------|-2-------x---------------x------|
A|---------x-----------2---x------|---------x---------------x------|
E|-0-------x---------------x------|-0-------x---------------x------|
   1   +   2   +   3   +   4   +    1   +   2   +   3   +   4   +   


***********************************
| h  hammer-on
| x  dead note
*********************************** 
Suggest correction
Creating personal tab
Creating personal tab
You can edit any tab online and save it as your Personal.

You can edit, replace or remove any tab part or add personal notes – all changes will be seen only by you.

Personal tabs can be accessed anytime from any device, even offline.
Learn more »
comments
print report bad tab
32 comments total. Showing first comments.
+6 reply
vigdis.tong 38 Nov 29, 2015 04:36 PM, edited at 10:31 pm

Is there a capo needed on this version?

+4 reply
roddy1977 20 Dec 08, 2015 12:13 PM

Fantastic tab, thanks for posting! Particularly helpful having the beats of each bar written underneath to see the timing. Excellent stuff!

0 reply
giselle.bennett 10 Dec 16, 2015 09:25 PM

Perfect Tab. Great tutorial video too!! thank you so much Dave Tran

guest
You may want to rate the tab now too:
select rating
Wanna post a correction for this tab? Suggest correction