Oops, an error
Loading. Please wait.
We have an official Love Yourself tab made by UG professional guitarists. Check out the tab »
×

Love Yourself tab

version 9
version 9

Whole song

Interactive

Video

7,954 views 30 this week
no commentswrite comment
1 2 3 4 5
x 3
add to favorites
×
Save as Personal and add changes to this tab that will be seen only by you. Learn more ›
×
You can save this tab as Personal to edit and correct it or add notes. All changes will be seen only by you. Learn more »
launch autoscroll
font size
0
reset
how to read this tab
guitar tuner
backing track
0:00
0:00
edit
Autoscroll
slow
fast
+/-
esc
set tempo
stop
Author
Difficulty
intermediate
-------------------------------------------------------------------------------
                           Love Yourself - Justin Bieber
-------------------------------------------------------------------------------
Tabbed by: Ben Delgado

Tuning: Standard


[Intro]

   For all times that you....
e|--------------x---------------x--------------x----------------x----------------|
B|----8h9--9----x-------7--7----x------5--5----x------10--10----x----------------|
G|--------------x---------------x--------------x----------------x----------------|
D|--------------x---------------x--------------x----------------x----------------|
A|----7---------x-------6-------x------4-------x------9---------x----------------|
E|--------------x---------------x--------------x----------------x----------------|

e|------------x--------------x---------------------------------|   (Repeat 4x)
B|----9--9----x------7--7----x---------------------------------|
G|------------x--------------x------------------------------------------------|
D|------------x--------------x------------------------------------------------|
A|----7-------x------6-------x------------------------------------------------|
E|------------x---------------------------------------------------------------|


[Pre-Chorus]

   My momma don't like you and she likes everyone...
e|------------x---------------------x-------x--------------------------------|
B|------------x----2----------------x-------x--------------------------------|
G|----6-----6-x----2---------1--1---x--1----x--------------------------------|
D|----6-----6-x----2---------2--2---x--2----x--------------------------------|
A|----4-----4-x--------------2--2---x--2----x--------------------------------|
E|------------x---------------------x-------x--------------------------------|

e|------------x---------------------x-------x--------------------------------|
B|------------x----2----------------x-------x--------------------------------|
G|----6-----6-x----2---------1--1---x--1----x--------------------------------|
D|----6-----6-x----2---------2--2---x--2----x--------------------------------|
A|----4-----4-x--------------2--2---x--2----x--------------------------------|
E|------------x---------------------x-------x--------------------------------|

e|------------x---------------------x-------x--------------------------------|
B|------------x----2----------------x-------x--------------------------------|
G|----6-----6-x----2---------1--1---x--2----x--------------------------------|
D|----6-----6-x----2---------2--2---x--4----x--------------------------------|
A|----4-----4-x--------------2--2---x--4----x--------------------------------|
E|------------x---------------------x-------x--------------------------------|
                             
e|------------x--------------------------------------------------------------|
B|------------x----2---------------------------------------------------------|
G|----6-----6-x----2---------2-2-2-2-2---------------------------------------|
D|----6-----6-x----2---------4-4-4-4-4---------------------------------------|
A|----4-----4-x--------------4-4-4-4-4---------------------------------------|
E|------------x--------------------------------------------------------------|
                             (^ Strum 5x)


[Chorus]

        (Listen to song to hear the strumming pattern)
 
    Cause if you like the way you look that much... love yourself...
e|-----------------------------------------------------------|     (Repeat 2x)
B|-----------------------2-----------2-----------------------|
G|----1-----4-----6------2-----1-----2-----1-----------------|
D|----2-----4-----6------2-----2-----2-----2---------------------------------|
A|----2-----2-----4------------2-----------2---------------------------------|
E|---------------------------------------------------------------------------|


(same as intro)

  But when you told me that you hated my friends...
e|--------------x---------------x--------------x----------------x----------------|
B|----8h9--9----x-------7--7----x------5--5----x------10--10----x----------------|
G|--------------x---------------x--------------x----------------x----------------|
D|--------------x---------------x--------------x----------------x----------------|
A|----7---------x-------6-------x------4-------x------9---------x----------------|
E|--------------x---------------x--------------x----------------x----------------|

e|------------x--------------x-------------------------------|    (Repeat 3x)
B|----9--9----x------7--7----x-------------------------------|
G|------------x--------------x------------------------------------------------|
D|------------x--------------x------------------------------------------------|
A|----7-------x------6-------x------------------------------------------------|
E|------------x---------------------------------------------------------------|


[Pre-Chorus]

   My momma don't like you and she likes everyone...
e|------------x---------------------x-------x--------------------------------|
B|------------x----2----------------x-------x--------------------------------|
G|----6-----6-x----2---------1--1---x--1----x--------------------------------|
D|----6-----6-x----2---------2--2---x--2----x--------------------------------|
A|----4-----4-x--------------2--2---x--2----x--------------------------------|
E|------------x---------------------x-------x--------------------------------|

e|------------x---------------------x-------x--------------------------------|
B|------------x----2----------------x-------x--------------------------------|
G|----6-----6-x----2---------1--1---x--1----x--------------------------------|
D|----6-----6-x----2---------2--2---x--2----x--------------------------------|
A|----4-----4-x--------------2--2---x--2----x--------------------------------|
E|------------x---------------------x-------x--------------------------------|

e|------------x---------------------x-------x--------------------------------|
B|------------x----2----------------x-------x--------------------------------|
G|----6-----6-x----2---------1--1---x--2----x--------------------------------|
D|----6-----6-x----2---------2--2---x--4----x--------------------------------|
A|----4-----4-x--------------2--2---x--4----x--------------------------------|
E|------------x---------------------x-------x--------------------------------|
                             
e|------------x--------------------------------------------------------------|
B|------------x----2---------------------------------------------------------|
G|----6-----6-x----2---------2-2-2-2-2---------------------------------------|
D|----6-----6-x----2---------4-4-4-4-4---------------------------------------|
A|----4-----4-x--------------4-4-4-4-4---------------------------------------|
E|------------x--------------------------------------------------------------|
                             (^ Strum 5x)


[Chorus]

        (Listen to song to hear the strumming pattern)

   Cause if you like the way you look that much... love yourself...
e|-----------------------------------------------------------|     (Repeat 2x)
B|-----------------------2-----------2-----------------------|
G|----1-----4-----6------2-----1-----2-----1-----------------|
D|----2-----4-----6------2-----2-----2-----2---------------------------------|
A|----2-----2-----4------------2-----------2---------------------------------|
E|---------------------------------------------------------------------------|


[Bridge]

Then the trumpet plays, just repeat chorus until it goes back to the intro. 


     For all the times that you made me feel small...
e|--------------x---------------x--------------x----------------x----------------|
B|----8h9--9----x-------7--7----x------5--5----x------10--10----x----------------|
G|--------------x---------------x--------------x----------------x----------------|
D|--------------x---------------x--------------x----------------x----------------|
A|----7---------x-------6-------x------4-------x------9---------x----------------|
E|--------------x---------------x--------------x----------------x----------------|

e|------------x--------------x--------------------------------------| (Repeat 2x)
B|----9--9----x------7--7----x--------------------------------------|
G|------------x--------------x------------------------------------------------|
D|------------x--------------x------------------------------------------------|
A|----7-------x------6-------x------------------------------------------------|
E|------------x---------------------------------------------------------------|


[Chorus]

        (Listen to song to hear the strumming pattern)

 Cause if you like the way you look that much... love yourself...  
e|-----------------------------------------------------------|     (Repeat 4x)
B|-----------------------2-----------2-----------------------|
G|----1-----4-----6------2-----1-----2-----1-----------------|
D|----2-----4-----6------2-----2-----2-----2---------------------------------|
A|----2-----2-----4------------2-----------2---------------------------------|
E|---------------------------------------------------------------------------|

************************************

| x  Dead note
| h  Hammer-on

************************************

            
            
Suggest correction
Creating personal tab
Creating personal tab
You can edit any tab online and save it as your Personal.

You can edit, replace or remove any tab part or add personal notes – all changes will be seen only by you.

Personal tabs can be accessed anytime from any device, even offline.
Learn more »
Give kudos to tab author, rate the tab!
1 2 3 4 5
comments
print report bad tab
guest
You may want to rate the tab now too:
select rating
Wanna post a correction for this tab? Suggest correction