Oops, an error
Loading. Please wait.
We have Chord Pro version of Sorry.
It's the closest thing you can get to the original song and it has interactive parts. Check out the tab »
×
95,551 views 54 this week
no commentswrite comment
1 2 3 4 5
x 15
add to favorites
×
Save as Personal and add changes to this tab that will be seen only by you. Learn more ›
×
You can save this tab as Personal to edit and correct it or add notes. All changes will be seen only by you. Learn more »
launch autoscroll
font size
0
reset
how to read this tab
guitar tuner
edit
Autoscroll
slow
fast
+/-
esc
set tempo
stop
SORRY - Justin Bieber
Tabbed by: Chiara W. 
E-mail:
Tab of video lesson: https://www.youtube.com/watch?v=MND8lRD7pC0

Tuning: no capo or capo 1 (same key as the song)

Melody is great to play finger picking style or play with a looper. Chords also sound great. Enjoy playing!


[Melody]

e|---------------------------------------------------------------------------|
B|-3-3-3-3---5-5/7\5----3----3-3-3-3-5/7---------3-3-3-3---5-5/7\5-----------|
G|4-------2-4----------4----4-----------4\2-2---4-------2-4------------------|
D|---------------------------------------------------------------------------|
A|---------------------------------------------------------------------------|
E|---------------------------------------------------------------------------|

e|--5-2---2----5-2-----------------------------------------------------------|
B|-3---5-5----3---5-5---3---------3h5h5---3h5h5-5/7\5------------------------|
G|4--------2-2-------2-2-------2h4-----2h4-----------------------------------|
D|---------------------------------------------------------------------------|
A|---------------------------------------------------------------------------|
E|---------------------------------------------------------------------------|

e|--2-2----------------------------------------------------------------------|
B|-3---5p3-------------------------------------------------------------------|
G|4-------3------------------------------------------------------------------|
D|---------------------------------------------------------------------------|
A|---------------------------------------------------------------------------|
E|---------------------------------------------------------------------------|


[Intro] 

G* - Bm* - A*
G* - Bm* - A*


[Verse 1]

G                    Bm                 A
You gotta go and get angry at all of my honesty
G                    Bm                     A
You know I try but I don't do too well with apologies
G                    Bm                              A
I hope I don't run out of time, could someone call a referee?
             G             Bm      A
Cause I just need one more shot at forgiveness
G                      Bm                        A
I know you know that I made those mistakes maybe once or twice
G                       Bm               A
By once or twice I mean maybe a couple a hundred times
   G                 Bm                    A
So let me, oh let me redeem, oh redeem, oh myself tonight
             G             Bm      A
Cause I just need one more shot at second chances


[Pre-Chorus]

G*          Bm*                 A*
Yeah, is it too late now to say sorry?
          G*                Bm*       A*
Cause I'm missing more than just your body
G*    Bm*                 A*     
Is it too late now to say sorry?

        Em* 
Yeah I know that I let you down
G*                        A*
Is it too late to say I'm sorry now?)

or 

(Yeah I know that I let you down
Is it too late to say I'm sorry now?)

e|--5-2---2----5-2----------|
B|-3---5-5----3---5-5---3---|
G|4--------2-2-------2-2----|
D|--------------------------|
A|--------------------------|
E|--------------------------|

Continues like this through the whole song
(bridge is same as pre-chorus)


************************************
| /   slide up
| \   slide down
| h   hammer-on
| p   pull-off
| *   strum only once
************************************
Suggest correction
Creating personal tab
Creating personal tab
You can edit any tab online and save it as your Personal.

You can edit, replace or remove any tab part or add personal notes – all changes will be seen only by you.

Personal tabs can be accessed anytime from any device, even offline.
Learn more »
comments
print report bad tab
guest
You may want to rate the tab now too:
select rating
Wanna post a correction for this tab? Suggest correction