Oops, an error
Loading. Please wait.
We have Chord Pro version of Sorry.
It's the closest thing you can get to the original song and it has interactive parts. Check out the tab »
×
23,731 views 72 this week
6 commentsread comments
1 2 3 4 5
x 13
add to favorites
×
Save as Personal and add changes to this tab that will be seen only by you. Learn more ›
×
You can save this tab as Personal to edit and correct it or add notes. All changes will be seen only by you. Learn more »
launch autoscroll
font size
0
reset
how to read this tab
guitar tuner
edit
Autoscroll
slow
fast
+/-
esc
set tempo
stop
-------------------------------------------------------------------------------
                             SORRY - JUSTIN BIEBER
-------------------------------------------------------------------------------
Tabbed by: BT
E-mail: --

I put this together by ear watching his mini performance with Dan Kanter on Ellen. I'm pretty sure this
is almost exactly how he plays it. This is my first tab so I hope you like it.
Link to the performance: https://www.youtube.com/watch?v=OPtfZgW9mBc (skip to 2:10)

Tuning: D# G# C# G# C# D#
CAPO: 2ND FRET


[Intro] (X2)                                  (strum)

D#|---x--------------------0-------------------0--------------------------------------|
C#|---0-----------0h2------0----------0h2------0--------------------------------------|
G#|---0-----0h2------------0----0h2------------0--------------------------------------|
C#|---0--------------------0-------------------2--------------------------------------|
G#|---0--------------------2-------------------0--------------------------------------|
D#|---3--------------------x-------------------x--------------------------------------|


[VERSE] 

listen to video for strumming pattern

D#|---x---------x--------x------------------------------------------------------------|
C#|---0---------0--------0------------------------------------------------------------|
G#|---0---------0--------0-----0--------0----0----------------------------------------|
C#|---0---------4--------2-----2/4----4\2----0----------------------------------------|
G#|---0---------2--------0-----0--------0----0----------------------------------------|
D#|---3---------x--------x------------------------------------------------------------|

D#|---x---------x--------x--------------x-------x------x------------------------------|
C#|---0---------0--------0--------------0-------0------0------------------------------|
G#|---0---------0--------0--------------0-------0------0-----0-----0-----0------------|
C#|---0---------4--------2--------------0-------4------2-----2/4---4\2---0------------|
G#|---0---------2--------0--------------0-------2------0-----0-----0-----0------------|
D#|---3---------x--------x--------------3-------x------x------------------------------|

D#|---x---------x--------x------------------------------------------------------------|
C#|---0---------0--------0------------------------------------------------------------|
G#|---0---------0--------0-----0------------------------------------------------------|
C#|---0---------4--------2-----2h4---4p2---2p0----------------------------------------|
G#|---0---------2--------0-----0----------------2p0-----------------------------------|
D#|---3---------x--------x------------------------------------------------------------|

D#|---x---------x--------x------------------------------------------------------------|
C#|---0---------0--------0------------------------------------------------------------|
G#|---0---------0--------0-----0--------0----0----------------------------------------|
C#|---0---------4--------2-----2/4----4\2----0----------------------------------------|
G#|---0---------2--------0-----0--------0----0----------------------------------------|
D#|---3---------x--------x------------------------------------------------------------|

D#|---x---------x--------x------------------------------------------------------------|
C#|---0---------0--------0---------------0---2----------------------------------------|
G#|---0---------0--------0-----4p0----4----4------------------------------------------|
C#|---0---------4--------2------------------------------------------------------------|
G#|---0---------2--------0------------------------------------------------------------|
D#|---3---------x--------x------------------------------------------------------------|

D#|---x---------x--------x------------------------------------------------------------|
C#|---0---------0--------0------------------------------------------------------------|
G#|---0---------0--------0-----0--------0----0----------------------------------------|
C#|---0---------4--------2-----2/4----4\2----0----------------------------------------|
G#|---0---------2--------0-----0--------0----0----------------------------------------|
D#|---3---------x--------x------------------------------------------------------------|

D#|---x---------x--------x-------00------12+------------------------------------------|
C#|---0---------0--------0-------00------12+------------------------------------------|
G#|---0---------0--------0------000------12+------------------------------------------|
C#|---0---------4--------2------2/11--------------------------------------------------|
G#|---0---------2--------0------0-----12------12+-------------------------------------|
D#|---3---------x--------x------x-----------------------------------------------------|


[CHORUS] 

strum throughout

D#|---2---------2--------2------0---------------------------------------------|
C#|---0---------0--------0------0---------------------------------------------|
G#|---0---------0--------0------0---------------------------------------------| X3
C#|---0---------0--------2------0---------------------------------------------| 
G#|---0---------2--------0------0---------------------------------------------|
D#|---3---------X--------x------x---------------------------------------------|

D#|---x---------0------0------------------------------------------------------|
C#|---x---------0------0------------------------------------------------------|
G#|---0---------0------0------------------------------------------------------|
C#|---2---------0------0------------------------------------------------------|
G#|---2---------0------0------------------------------------------------------|
D#|---0---------3------5------------------------------------------------------|

D#|---x--------------------0-------------------0------------------------------|
C#|---0-----------0h2------0----------0h2------0------------------------------|
G#|---0-----0h2------------0----0h2------------0-----0------0------0----------| X3
C#|---0--------------------0-------------------2-----2/4----4\2----0----------|
G#|---0--------------------2-------------------0-----0------0------0----------|
D#|---3--------------------x-------------------x------------------------------|

D#|---x---------0------0------------------------------------------------------|
C#|---x---------0------0------------------------------------------------------|
G#|---0---------0------0------------------------------------------------------|
C#|---2---------0------0------------------------------------------------------|
G#|---2---------0------0------------------------------------------------------|
D#|---0---------3------5------------------------------------------------------|

(strum and hold each chord)
D#|---x---------x--------x------------------------------------------------------------|
C#|---0---------0--------0------------------------------------------------------------|
G#|---0---------0--------0------------------------------------------------------------|
C#|---0---------4--------2------------------------------------------------------------|
G#|---0---------2--------0------------------------------------------------------------|
D#|---3---------x--------x------------------------------------------------------------|


[VERSE 2]

D#|---x---------x--------x------------------------------------------------------------|
C#|---0---------0--------0------------------------------------------------------------|
G#|---0---------0--------0-----0--------0----0----------------------------------------|
C#|---0---------4--------2-----2/4----4\2----0----------------------------------------|
G#|---0---------2--------0-----0--------0----0----------------------------------------|
D#|---3---------x--------x------------------------------------------------------------|

D#|---x---------x--------x--------------x-------x------x------------------------------|
C#|---0---------0--------0--------------0-------0------0------------------------------|
G#|---0---------0--------0--------------0-------0------0-----0-----0-----0------------|
C#|---0---------4--------2--------------0-------4------2-----2/4---4\2---0------------|
G#|---0---------2--------0--------------0-------2------0-----0-----0-----0------------|
D#|---3---------x--------x--------------3-------x------x------------------------------|

D#|---x---------x--------x------------------------------------------------------------|
C#|---0---------0--------0------------------------------------------------------------|
G#|---0---------0--------0-----0--------0----0----------------------------------------|
C#|---0---------4--------2-----2/4----4\2----0----------------------------------------|
G#|---0---------2--------0-----0--------0----0----------------------------------------|
D#|---3---------x--------x------------------------------------------------------------|


[CHORUS 2]

strum throughout

D#|---2---------2--------2------0---------------------------------------------|
C#|---0---------0--------0------0---------------------------------------------|
G#|---0---------0--------0------0---------------------------------------------| X3
C#|---0---------0--------2------0---------------------------------------------| 
G#|---0---------2--------0------0---------------------------------------------|
D#|---3---------X--------x------x---------------------------------------------|

D#|---x---------0------0------------------------------------------------------|
C#|---x---------0------0------------------------------------------------------|
G#|---0---------0------0------------------------------------------------------|
C#|---2---------0------0------------------------------------------------------|
G#|---2---------0------0------------------------------------------------------|
D#|---0---------3------5------------------------------------------------------|

D#|---2---------2--------2------0---------------------------------------------|
C#|---0---------0--------0------0---------------------------------------------|
G#|---0---------0--------0------0---------------------------------------------| X3
C#|---0---------0--------2------0---------------------------------------------| 
G#|---0---------2--------0------0---------------------------------------------|
D#|---3---------X--------x------x---------------------------------------------|

D#|---x---------0------0------------------------------------------------------|
C#|---x---------0------0------------------------------------------------------|
G#|---0---------0------0------------------------------------------------------|
C#|---2---------0------0------------------------------------------------------|
G#|---2---------0------0------------------------------------------------------|
D#|---0---------3------5------------------------------------------------------|


[OUTRO](X2)

D#|---x--------------------0-------------------0------------------------------|
C#|---0-----------0h2------0----------0h2------0------------------------------|
G#|---0-----0h2------------0----0h2------------0-----0------0------0----------|
C#|---0--------------------0-------------------2-----2/4----4\2----0----------|
G#|---0--------------------2-------------------0-----0------0------0----------|
D#|---3--------------------x-------------------x------------------------------|

D#|---x--------------------0-------------------0------------------------------|
C#|---0-----------0h2------0----------0h2------0------------------------------|
G#|---0-----0h2------------0----0h2------------0-----0------------------------|
C#|---0--------------------0-------------------2-----2/4---4p2--2p0-----------|
G#|---0--------------------2-------------------0-----0---------------2p0------|
D#|---3--------------------x-------------------x------------------------------|

D#|---x--------------------0-------------------0------------------------------|
C#|---0-----------0h2------0----------0h2------0------------------------------|
G#|---0-----0h2------------0----0h2------------0------------------------------|
C#|---0--------------------0-------------------2------------------------------|
G#|---0--------------------2-------------------0------------------------------|
D#|---3--------------------x-------------------x------------------------------|

D#|---x---------0------0------------------------------------------------------|
C#|---x---------0------0------------------------------------------------------|
G#|---0---------0------0------------------------------------------------------|
C#|---2---------0------0------------------------------------------------------|
G#|---2---------0------0------------------------------------------------------|
D#|---0---------3------5------------------------------------------------------|

(End w/)
D#|---x-----------------------------------------------------------------------|
C#|---0-----------------------------------------------------------------------|
G#|---0-----------------------------------------------------------------------|
C#|---0-----------------------------------------------------------------------|
G#|---0-----------------------------------------------------------------------|
D#|---3-----------------------------------------------------------------------|


************************************

| /   slide up
| \   slide down
| h   hammer-on
| p   pull-off
| +   harmonic
| x   Mute note

************************************

            
            
Suggest correction
Creating personal tab
Creating personal tab
You can edit any tab online and save it as your Personal.

You can edit, replace or remove any tab part or add personal notes – all changes will be seen only by you.

Personal tabs can be accessed anytime from any device, even offline.
Learn more »
comments
print report bad tab
6 comments total. Showing first comments.
0 reply
Matty.Mark 10 Nov 30, 2015 06:40 PM

Does it bother anyone else how in the tuning, they're all sharps and not flats?

0 reply
amyantuanete 43 Feb 16, 2016 09:27 PM

The hammer-ons in the intro and chorus do not match the notes played in the song. Although the chords are correct the picking is not

0 reply
nacklow 41 Mar 18, 2016 06:17 PM

Can someone tell me how to get this kind of tuning?

guest
You may want to rate the tab now too:
select rating
Wanna post a correction for this tab? Suggest correction