Oops, an error
Loading. Please wait.

U Smile Chords

version 1
version 1

Acoustic

Whole song

Interactive

21,525 views 6 this week
no commentswrite comment
1 2 3 4 5
please rate
add to favorites
launch autoscroll
font size
0
reset
transpose
0
reset
simplify chords
display chords
guitar tuner
Autoscroll
slow
fast
+/-
esc
set tempo
stop
Help us to improve Ultimate-Guitar.com Take our survey!
×
Difficulty
Capo
novice
1st fret
-------------------------------------------------------------------------------
                            U Smile Acoustic - Justin Bieber
-------------------------------------------------------------------------------
Tabbed by: Ploopy
Email:dingo2712@gmail.com

Tuning: Standard
Capo 1      

    C     Bb5    F     E
e|---------1-----1-----x-------------------------------------------------------|
B|--1------1-----1-----x-------------------------------------------------------|
G|---------3-----2-----8-------------------------------------------------------|
D|--2------3-----3-----8-------------------------------------------------------|
A|--3------1-----3-----6-------------------------------------------------------|
E|---------------1-----x-------------------------------------------------------|

C  Bb5          F
I wait on you forever
And a day, hand and foot  
C    Bb5          F
Your world is my world, yeah
C                Bb5
Ain't no way you ever gon'
         F
Get any less then you should

F
'Cause baby
E          Bb5      F
You smile, I smile, oh
F
'Cause whenever
E          Bb5
You smile, I smile
F
Hey hey hey

C    Bb5                       F
Your lips, my biggest weakness
F
Shouldn't have let you know
C   Bb5          F
I'm always gonna do what they say
C
If you need me,
Bb5                      F
I'll come running from a thousand miles away

E               Bb5
When you smile, I smile
F
Woah oh oh oh
E          Bb5
You smile, I smile, hey

C                 Bb5
Baby take my open heart
F
And all it offers
C                 
'Cause this is as unconditional
Bb5
As it'll ever get
F
You ain't seen nothin yet
  Bb5
I won't ever hesitate to give you more

(Repeat Chorus, Listen for change in chords)
'Cause baby
You smile, I smile
Woah oh oh oh
You smile, I smile
Hey hey hey
You smile, I smile
I smile, I smile, I smile
You smile, I smile
Make me smile baby

C        Bb5
Baby you won't ever want for nothing
F
You are my answer and my means now
C        Bb5
With you there's no in between
F
I'm all in
C                   Bb5
'Cause my cards are on the table
                    F
And I'm willing and I'm able
C     Bb5
But I fold to your wish
F
'Cause it's my command

(Repeat Chorus Again)
Hey hey hey
You smile, I smile
Woah oh oh oh
You smile, I smile
Hey hey hey
You smile, I smile
I smile, I smile, I smile
You smile, I smile
You smile, I smile
You smile, I smile (End on F)

Suggest correction
Give kudos to tab author, rate the tab!
1 2 3 4 5
comments
print report bad tab
guest
You may want to rate the tab now too:
select rating
Please do not post tabs as comments. Select "correction" instead!