Oops, an error
Loading. Please wait.

Forever Autumn Tab

version 2
version 2

Intro

Whole song

4,386 views 1 this week
2 commentsread comments
1 2 3 4 5
1 last vote to show rating
add to favorites
launch autoscroll
font size
0
reset
how to read this tab
guitar tuner
×
Best way to learn
"Forever Autumn"
Autoscroll
slow
fast
+/-
esc
set tempo
stop
Author
song  -forever autumn
artist-Hayward Justin
tuning-standard (E A D G B E)


pretty much the same as the other but easier to play, and a little lower,not very proud 
it nothing to it really

E|--7--5--7--3--5--2-3--0-------------------------|
B|------------------------------------------------|
G|------------------------------------------------|
D|------------------------------------------------|
A|------------------------------------------------|
E|------------------------------------------------|

thats it
Suggest correction
Give kudos to tab author, rate the tab!
1 2 3 4 5
comments
print report bad tab
2 comments total.
0 reply
BobSongs 146 Jan 02, 2016 08:14 PM

The piece is played on several strings, capo set to the 5th fret. This intro to Forever Autumn is played on 3 strings with support from a bass note on the 5th string.

0 reply
BobSongs 146 Jan 02, 2016 08:19 PM

Capo set to 5th string:

E|--0---0---------------------|
B|----3---1---3---0---1-------|
G|------------------------2---|
D|----------------------------|
A|--0-------------------------|
E|----------------------------|

guest
You may want to rate the tab now too:
select rating
Wanna post a correction for this tab? Suggest correction