Oops, an error
Loading. Please wait.

I Could Kick Your Ass Tab

version 2
version 2

Intro

Whole song

2,785 views 1 this week
1 commentread comment
1 2 3 4 5
x 4
add to favorites
launch autoscroll
font size
0
reset
how to read this tab
guitar tuner
×
Best way to learn
"I Could Kick Your Ass"
Autoscroll
slow
fast
+/-
esc
set tempo
stop
Author
Difficulty
Tuning
  follow
novice
D# G# C# F# A# D#
Hey yall this is my first tab. I think its pretty close to how justin plays it so give 
it a try and post a review.


D#---------------3----------------0--------------------------------3-|
A#---------------2----------------3-----------------2--------------2-|
F#---------------3----------------0--0-0-0-0--------2--------------3-|
C#-------0--3-3--0--------0--3-3--0-----------4--2--2--------0--3--0-|
G#-0--2-------------0--2----------2-----------------0--0--2----------|
D#--------------------------------3----------------------------------|



Support Our Troops!!!! SEMPER FI
Suggest correction
comments
print report bad tab
1 comment total.
0 reply
chris13x13 57 Jun 03, 2015 12:13 PM

it'll sound closer if you replace the last 5 notes with:
-----------------------2
-----------------------0
-----------------------0
-0-2-0-2-0-----2-0-----0
-----------2-------2-0-2
-------------3---------3

guest
You may want to rate the tab now too:
select rating
Wanna post a correction for this tab? Suggest correction