Oops, an error
Loading. Please wait.

Sunshine Babies Tab

4,066 views 3 this week
1 commentread comment
1 2 3 4 5
2 more votes to show rating
add to favorites
launch autoscroll
font size
0
reset
how to read this tab
guitar tuner
Autoscroll
slow
fast
+/-
esc
set tempo
stop
Help us to improve Ultimate-Guitar.com Take our survey!
×
Author
Difficulty
novice
Artist: Justin Moore
Song : Sunshine Babies
Album : Outlaws Like Me, 2011

Key:
x = palm mute
h = hammer on
p = pull of
/ = slide
~ = let it ring out
___________

Guitar 1 (Acoustic)
Intro
F D C D -- G

Verse 1:
D                         C
Down in Alabama they wear them little cutoffs,
G                               F
In Georgia it's camo bikini tops,
D              C
South Carolina layin' on the Myrtle Beach,
G                    F
Panama City drinkin' shots for free
D                       C
That time I went out to California,
G                       F
had to dodge them on the pch,
D                             C                         G
And over there in Little Rock sunnin' on the bass boat, sippin' on a cold one out on the lake

Chorus:
     D          C
Them sunshine babies
G
All across the land workin' on a tan
        D            C
Drivin' country boys crazy
G
All oiled down with a beer in their hand
F             C
Easy to spot, way too hot
G
I'm diggin' on what they got
     F  D     C    D
Them sunshine babies

Verse 2:
D                     C
Hat turned backwards, flyin' down a back road
G      F
CJ 7, headed for a swimmin' hole
D                 C
Me and the boys, hangin' out of the doors
G                          F
Ain't got no fishin' pole, got no lures
D                             C
'Cause what we're afters layin' up on the bank
G                           F
They're jumpin' off that old rope swing
D                            C
They're barefoot in the mud, cooler on the tailgate
G                   F
I can see them now, shakin' their thing

Chorus: 2x
     D          C
Them sunshine babies
G
All across the land workin' on a tan
        D            C
Drivin' country boys crazy
G
All oiled down with a beer in their hand
F             C
Easy to spot, way too hot
G
I'm diggin' on what they got
     F  D     C    D
Them sunshine babies

then repeat the last two lines of the chorus.
------------------
Guitar 2 : (Electric Guitar)
Intro
e--------------------------------------|
B--------------------------------------|
G--------------------------------------|
D-3------------------------------------|
A---5--3--5----5-5-5-5-5-5-5-----------|
E--------------3-3-3-3-3-3-3-----------|
               X X X X X (slowly release palm mute)

e----------------------|
B----------------------|
G----------------------|
D-3--------------------|
A---5--3--5--3-3-3~----|
E----------------------|

Verse 1: - Play 4 times
e--------------------------------------|
B--------------------------------------|
G--------------------------------------|
D--7-7-7---5-5-5-----------------------|
A--5-5-5---3-3-3--5-5-5----3-3-3-3-----|
E-----------------3-3-3----1-1-1-1-----|
   x x x   x x x  x x x    x x x (slowly release palm mute on the last power chord the 
4th time you repeat it to go into the chorus)

Chorus :
"sunshine babies...
e----------------------------------------|
B----------------------------------------|
G----------------------------------------|
D--7-7----5-5----------------------------|<---- play this 2x then:
A--5-5----3-3--5-5-5-5-5-5-5-------------|
E--------------3-3-3-3-3-3-3-------------|
"Easy to spot..
e--------------------------------------|
B--------------------------------------|
G--------------------------------------|
D-----------5-5-5----------------------|<---- 1x
A-3-3-3-3---3-3-3--5-5-5-5-5~----------|
E-1-1-1-1----------3-3-3-3-3~----------|
Sun-shine-ba-bies.......
e--------------------------------------|
B--------------------------------------|
G--------------------------------------|
D-----7---5---7-7~---------------------|
A-3---5---3---5-5~---------------------|
E-1------------------------------------|

Verse 2: - play 4x
e----------------------------------------|
B----------------------------------------|
G----------------------------------------|
D--7-7-7-7--5-5-5-5----------------------|
A--5-5-5-5--3-3-3-3-5-5-5----3-3-3-3-----|
E-------------------3-3-3----1-1-1-1-----|
   x x x   x x x  x x x    x x x (slowly release palm mute on the last power chord the 
4th time you repeat it to go into the chorus)

Chorus play 2x :
Chorus :
"sunshine babies...
e----------------------------------------|
B----------------------------------------|
G----------------------------------------|
D--7-7----5-5----------------------------|<---- play this 2x then:
A--5-5----3-3--5-5-5-5-5-5-5-------------|
E--------------3-3-3-3-3-3-3-------------|
"Easy to spot..
e--------------------------------------|
B--------------------------------------|
G--------------------------------------|
D-----------5-5-5----------------------|<---- 1x
A-3-3-3-3---3-3-3--5-5-5-5-5~----------|
E-1-1-1-1----------3-3-3-3-3~----------|
Sun-shine-ba-bies.......
e--------------------------------------|
B--------------------------------------|
G--------------------------------------|
D-----7---5---7-7~---------------------|
A-3---5---3---5-5~---------------------|
E-1------------------------------------|
END
---------------
also, this is an alternate version of the intro, whichever is easiest for you to play:
e--------------|
B--------------|
G--------------|
D-3p0----------|
A-----3--5-----|
E--------------|
its pretty much the same except you use a pull off. whichever sounds better to you.

Please rate and/or comment thanks!
Suggest correction
Give kudos to tab author, rate the tab!
1 2 3 4 5
comments
print report bad tab
1 comment total.
0 reply
CorvettecowboY 10 Aug 31, 2012 02:47 PM

Great job! The only correction is that I'm pretty sure it's in half step down tuning like pretty much all of his songs are.

guest
You may want to rate the tab now too:
select rating
Wanna post a correction for this tab? Suggest correction