Oops, an error
Loading. Please wait.

Heartless chords

version 4
version 4

Whole song

24,949 views 12 this week
3 commentsread comments
1 2 3 4 5
x 10
add to favorites
×
Save as Personal and add changes to this tab that will be seen only by you. Learn more ›
×
You can save this tab as Personal to edit and correct it or add notes. All changes will be seen only by you. Learn more »
launch autoscroll
font size
0
reset
transpose
0
reset
simplify chords
display chords
guitar tuner
edit
Autoscroll
slow
fast
+/-
esc
set tempo
stop
Author
Strumming
There is no strumming pattern for this song yet. and get +5 IQ
I saw this tabbed before, and this is based off someone else's. Some of the chords 
were off and I really like this song. Tabbed by ear, probably 99% right. Enjoy.

Intro/Verse
e |--------------x-------------x--| x3  
B |------7-------x-------2-----x--|
G |------7-------x-------2-----x--|
D |--------------x-------------x--|
A |--------------x-------------x--|
E |------7-------x-------2-----x--| Fingerpicked
                 ^Slap         ^Slap
Then 1x
             E
e |-----0-------| 
B |-----0-------|
G |-----1-------|
D |-----2-------|
A |-----2-------|
E |-------------| Strummed

Repeated for all intro/verse.

The Bm is played barred. You can play the A barred or just a regular A for the chorus.

Chorus
E                       Bm            A
I'll never leave You Heartless 

       E
Heartless
                                  Bm               A
Never leave You standing in the darkness 

           E
The darkness
               Bm           A   
Darling oh I Promise 

       E
I Promise
                     Bm           A
I'll never leave You Heartless

         E
Heartless

2nd Verse
e |--------------x-------------x--| x3  
B |------7-------x-------2-----x--|
G |------7-------x-------2-----x--|
D |--------------x-------------x--|
A |--------------x-------------x--|
E |------7-------x-------2-----x--| Fingerpicked
                 ^Slap         ^Slap
Then 1x
             E
e |-----0-------| 
B |-----0-------|
G |-----1-------|
D |-----2-------|
A |-----2-------|
E |-------------| Strummed

Another Chorus.

Bridge - The A2 and A3 chords are below. G and F are Barre.

A2*                                A3    G    
Oh no I'm never gonna ever let You down down down
A2*                                A3    G    F
I'm never gonna ever gonna let You down down down 
A3   G    F            
Down down down
 
Chorus x3

Fin.

             A2*
e |-----x-------| 
B |-----0-------|
G |-----0-------|
D |-----5-------|
A |-----5-------|
E |-----5-------| 
  
             A3*
e |-----x-------| 
B |-----0-------|
G |-----5-------|
D |-----5-------|
A |-----5-------|
E |-----0-------|

            
            
Suggest correction
Creating personal tab
Creating personal tab
You can edit any tab online and save it as your Personal.

You can edit, replace or remove any tab part or add personal notes – all changes will be seen only by you.

Personal tabs can be accessed anytime from any device, even offline.
Learn more »
comments
print report bad tab
3 comments total.
0 reply
thatpnkflamingo 31 Nov 05, 2010 10:27 AM

Excellent tab! Spot on!

0 reply
fallenskatr06 21 Nov 07, 2010 09:39 PM

There is only one section I would change based on seeing him play it live on youtube. The A2* and A3* in the bridge are like this:

A2*
e |-----0-------|
B |-----5-------|
G |-----5-------|
D |-----5-------|
A |-----0-------|
E |-----x-------|

A3*
e |-----x-------|
B |-----x-------|
G |-----5-------|
D |-----5-------|
A |-----0-------|
E |-----5-------|

0 reply
Warlock91590 652 Jun 08, 2014 07:09 PM

Fantastic job! spot on

guest
You may want to rate the tab now too:
select rating
Wanna post a correction for this tab? Suggest correction