Oops, an error
Loading. Please wait.

Supposed To Grow Old tab

21,089 views 1 this week
2 commentsread comments
1 2 3 4 5
x 8
add to favorites
×
Save as Personal and add changes to this tab that will be seen only by you. Learn more ›
×
You can save this tab as Personal to edit and correct it or add notes. All changes will be seen only by you. Learn more »
launch autoscroll
font size
0
reset
how to read this tab
guitar tuner
edit
Autoscroll
slow
fast
+/-
esc
set tempo
stop
Author
Difficulty
E|-------7-------7----------7------7--- 6--------5---- 5----------7------7---|
B|-------0-------0----------0------0------------ 0---- 0----------0------0---|
G|----0-------0----0-----7------7------6------5-----5----5----7------7-------|
D|---------------------------------------------------------------------------|
A|--7-------7----------------------------------------------------------------|
E|---------------------7------7--------6---5-----5---------7-------7---------|

This comes after
"We were supposed to grow old..."
before the song starts again
E|-------7-----------5----7--|
B|-------0-----------0----0--|
G|----0-----------5-------7--|   X2
D|---------------------------|
A|--7------------------------|
E|---------7----5---------7--|


[LYRICS]
You broke my Heart
when you said goodbye
And only you can lift my spirit
You gave me wings
And now you're gone
Well I'm crying inside
A thousand tears every time
I think of you
Lock the pictures away
Hide the letters too
Anything to get my mind off you

(Chorus)
You just walked by me like nothing ever happened
When you said you would rescue me if I was ever falling
Well now baby there's no way that you could have forgotten
All of the memories
I thought we shared
We were supposed to grow old

Tell me how can I look up at the moon
When I know that moon shines upon you
Through that window in your room
Oh how I wish I had you in my arms
See darling I would never let you go
No no no no no no no

            
            
Suggest correction
Creating personal tab
Creating personal tab
You can edit any tab online and save it as your Personal.

You can edit, replace or remove any tab part or add personal notes – all changes will be seen only by you.

Personal tabs can be accessed anytime from any device, even offline.
Learn more »
comments
print report bad tab
2 comments total.
-2 reply
conceptt 10 Aug 28, 2008 09:50 AM

lol..
this isnt even near the song

0 reply
jadenaoe 41 Dec 15, 2009 04:10 PM

LOLLLLLL do you know how to read tabs?

guest
You may want to rate the tab now too:
select rating
Wanna post a correction for this tab? Suggest correction