Oops, an error
Loading. Please wait.
We have Chord Pro version of Cant Stop The Feeling.
It's the closest thing you can get to the original song and it has interactive parts. Check out the tab »
×

Cant Stop The Feeling bass

version 1
version 1

Whole song

  • This is a powerful bass tab that includes all abso... Show more
  • This version is to accompany a youtube video for i... Show more

Interactive

29,338 views 219 this week
1 commentread comment
1 2 3 4 5
x 12
add to favorites
×
Save as Personal and add changes to this tab that will be seen only by you. Learn more ›
×
You can save this tab as Personal to edit and correct it or add notes. All changes will be seen only by you. Learn more »
launch autoscroll
font size
0
reset
guitar tuner
edit
Autoscroll
slow
fast
+/-
esc
set tempo
stop
About this tab version
This is a powerful bass tab that includes all absolutely correct notes, all the most special nuances, parts duration, and other important information. Was this info helpful? Yes No
Tuning: standard (EADG)
Tempo track: 110 bpm. 
Bar's size: 4/4
Song duration: 4:00 min.
101% correct bass tab.

For the intro you can play bass notes reverse, according the original song keyboard's chord's, 
as a nice variant! So it's sound's well:


[Intro/Pre-Verse]

(0:00 - 0:26)
G|----------------|----------------|----------------|----------------|
D|----------------|----------------|----------------|----------------|
A|3---------------|----------------|----------------|----------------|
E|----------------|5---------------|1---------------|5---------------|(x3)
  .   .   .   .    .   .   .   .    .   .   .   .    .   .   .   .  
  <                <                <                <


[Verse 1]

(0:27 - 0:43)
G|------------------------5-|---------------------|
D|-----------------5--------|------------------7\-|
A|3----3----3----3-----7----|---------------------|
E|--------------------------|-5-5--5--5--5---5----|
 |.    .    .      .         .     .     .     .  |
 |                                                |(x2)
 |                                                |
G|--------------------------|---------------------|
D|-----------------3--------|-----------------7\--|
A|----------------------3---|---------------------|
E|1----1----1----1----1-----|-5-5--5--5--5--5-----|
  .    .    .      .         .     .     .  sn.


[Pre-Chorus]

(0:44 - 1:01)
G|-----------------------|---------------------|-----------------------|---------------------|
D|-----------------------|---------------------|-----------------------|---------------------|
A|3----3----3---------3--|3----3----3----3-----|3----3----3---------3--|3----3----3----3-----|
E|-------------3-5--3----|------------------3-5|-------------3-5--3----|---------------------|
 |.    .    .     .       .    .    .    .      .    .    .     .       .    .    .    .     |
 |                                                                                sn         |
 |                                                                                           |
G|-----------------------|---------------------|----------------------|----------------------|
D|-----------------------|---------------------|----------------------|----------------------|
A|1----1----1---------1--|1----1----1----------|----------------------|1----1----1-----------|
E|-------------1-3--1----|---------------6\----|1--1--1----1----1--1-3|---------------6\-----|
  .    .    .     .       .    .    .    .      .     .    .    .      .    .    .    .
                                                                sn     sn   sn   sn


[Chorus]

(1:02 - 1:26)
G|------------------------5-|---------------------|
D|-----------------5--------|------------------7\-|
A|3----3----3----3-----7----|---------------------|
E|--------------------------|-5-5--5--5--5---5----|
 |.    .    .      .         .     .     .     .  |
 |                                                |(x3)
 |                                                |
G|--------------------------|---------------------|
D|-----------------3--------|-----------------7\--|
A|----------------------3---|---------------------|
E|1----1----1----1----1-----|-5-5--5--5--5--5-----|
  .    .    .      .         .     .     .  sn.

[Pre-Verse]

(as a variant, like an intro)

(1:27 - 1:44)
G|----------------|----------------|----------------|----------------|
D|----------------|----------------|----------------|----------------|
A|3---------------|----------------|----------------|----------------|
E|----------------|5---------------|1---------------|5---------------|(x2)
  .   .   .   .    .   .   .   .    .   .   .   .    .   .   .   .  
  <                <                <                <


[Verse 2]

(1:45 - 2:01)
G|------------------------5-|---------------------|
D|-----------------5--------|------------------7\-|
A|3----3----3----3-----7----|---------------------|
E|--------------------------|-5-5--5--5--5---5----|
 |.    .    .      .         .     .     .     .  |
 |                                                |(x2)
 |                                                |
G|--------------------------|---------------------|
D|-----------------3--------|-----------------7\--|
A|----------------------3---|---------------------|
E|1----1----1----1----1-----|-5-5--5--5--5--5-----|
  .    .    .      .         .     .     .  sn.


[Pre-Chorus]

(2:02 - 2:19)
G|-----------------------|---------------------|-----------------------|---------------------|
D|-----------------------|---------------------|-----------------------|---------------------|
A|3----3----3---------3--|3----3----3----3-----|3----3----3---------3--|3----3----3----3-----|
E|-------------3-5--3----|------------------3-5|-------------3-5--3----|---------------------|
 |.    .    .     .       .    .    .    .      .    .    .     .       .    .    .    .     |
 |                                                                                sn         |
 |                                                                                           |
G|-----------------------|---------------------|----------------------|----------------------|
D|-----------------------|---------------------|----------------------|----------------------|
A|1----1----1---------1--|1----1----1----------|----------------------|1----1----1-----------|
E|-------------1-3--1----|---------------6\----|1--1--1----1----1--1-3|---------------6\-----|
  .    .    .     .       .    .    .    .      .     .    .    .      .    .    .    .
                                                                sn     sn   sn   sn


[Chorus]

(2:20 - 2:54)
G|------------------------5-|---------------------|
D|-----------------5--------|------------------7\-|
A|3----3----3----3-----7----|---------------------|
E|--------------------------|-5-5--5--5--5---5----|
 |.    .    .      .         .     .     .     .  |
 |                                                |(x4)
 |                                                |
G|--------------------------|---------------------|
D|-----------------3--------|-----------------7\--|
A|----------------------3---|---------------------|
E|1----1----1----1----1-----|-5-5--5--5--5--5-----|
  .    .    .      .         .     .     .  sn.


[Interlude]

(the first time bass play's alone, and after play's with drums)

(2:55 - 3:10)
G|------------------------5-|---------------------|
D|-----------------5--------|------------------7\-|
A|3----3----3----3-----7----|---------------------|
E|--------------------------|-5-5--5--5--5---5----|
 |.    .    .      .         .     .     .     .  |
 |                                                |(x2)
 |                                                |
G|--------------------------|---------------------|
D|-----------------3--------|-----------------7\--|
A|----------------------3---|---------------------|
E|1----1----1----1----1-----|-5-5--5--5--5--5-----|
  .    .    .      .         .     .     .  sn.

(one bar pause: 3:11 - 3:13)


[Chorus]

(3:14 - 3:48)
G|------------------------5-|---------------------|
D|-----------------5--------|------------------7\-|
A|3----3----3----3-----7----|---------------------|
E|--------------------------|-5-5--5--5--5---5----|
 |.    .    .      .         .     .     .     .  |
 |                                                |(x4)
 |                                                |
G|--------------------------|---------------------|
D|-----------------3--------|-----------------7\--|
A|----------------------3---|---------------------|
E|1----1----1----1----1-----|-5-5--5--5--5--5-----|
  .    .    .      .         .     .     .  sn.


[Outro] (x2) 

(3:49 - 4:00)
(Justin sing alone)



************************************

| \  Slide down
| .  main fractions (1, 2, 3, 4)  
| sn short note 
| <  note reverse

************************************
Suggest correction
Creating personal tab
Creating personal tab
You can edit any tab online and save it as your Personal.

You can edit, replace or remove any tab part or add personal notes – all changes will be seen only by you.

Personal tabs can be accessed anytime from any device, even offline.
Learn more »
comments
print report bad tab
1 comment total.
+2 reply
BOSSGUITARKID 12 Oct 13, 2016 09:52 AM

Sounds just right thanks man.Now I can impress my girlfriend. THanks

guest
You may want to rate the tab now too:
select rating
Wanna post a correction for this tab? Suggest correction