Oops, an error
Loading. Please wait.
We have Chord Pro version of Cant Stop The Feeling.
It's the closest thing you can get to the original song and it has interactive parts. Check out the tab »
×

Cant Stop The Feeling bass

version 2
version 2

Whole song

  • This is a powerful bass tab that includes all abso... Show more
  • This version is to accompany a youtube video for i... Show more

Interactive

19,630 views 93 this week
3 commentsread comments
1 2 3 4 5
x 32
add to favorites
×
Save as Personal and add changes to this tab that will be seen only by you. Learn more ›
×
You can save this tab as Personal to edit and correct it or add notes. All changes will be seen only by you. Learn more »
launch autoscroll
font size
0
reset
guitar tuner
edit
Autoscroll
slow
fast
+/-
esc
set tempo
stop
Author
Difficulty
It's my version of this song. It has additional notes.

[Verse 1]

(0:25)
G|-----------------5----------------------------------------------------------|
D|-------------5-7-----------------7\1----------------------------------------|
A|--3--3--3----------------------------------------------3---------------7\5--|
E|---------------------5-5-5-5------------1--1--1----1-3-----5-5-5-5----------|


[Pre-Chorus]


(0:25)

G|-------------------------------------------------------------------------------|
D|-------------------------------------------------------------------------------|
A|-3-------3---3---------3---------3---3-----1-----1---1--------------------1-1-1|
E|-----3-5---5-------3-5-------3-5---5---------1-3---3-----1--1--1--1--1--1------|


[Chorus]

(0:59)


G|-----------------5----------------------------------------------------------|
D|-------------5-7-----------------7\1----------------------------------------|
A|--3--3--3----------------------------------------------3---------------7\5--|
E|---------------------5-5-5-5------------1--1--1----1-3-----5-5-5-5----------|


[Verse 2]

(1:42)

G|-----------------5----------------------------------------------------------|
D|-------------5-7-----------------7\1----------------------------------------|
A|--3--3--3----------------------------------------------3--------------7\5---|
E|---------------------5-5-5-5------------1--1--1----1-3------5-5-5-5---------|


[Pre-Chorus]

(1:59)

G|-------------------------------------------------------------------------------|
D|-------------------------------------------------------------------------------|
A|-3-------3---3---------3---------3---3-----1-----1---1--------------------1-1-1|
E|-----3-5---5-------3-5-------3-5---5---------1-3---3-----1--1--1--1--1--1------|


[Chorus/Break(Bass only)/Chorus]

(2:16 - 3:44)

G|-----------------5----------------------------------------------------------|
D|-------------5-7-----------------7\1----------------------------------------|
A|--3--3--3----------------------------------------------3---------------7\5--|
E|---------------------5-5-5-5------------1--1--1----1-3-----5-5-5-5----------|

************************************
 /   Slide up
 \   Slide down
************************************
Suggest correction
Creating personal tab
Creating personal tab
You can edit any tab online and save it as your Personal.

You can edit, replace or remove any tab part or add personal notes – all changes will be seen only by you.

Personal tabs can be accessed anytime from any device, even offline.
Learn more »
comments
print report bad tab
3 comments total.
0 reply
BOSSGUITARKID 12 Dec 03, 2016 09:54 PM

It is good

+2 reply
info4281 45 Dec 16, 2016 06:23 AM

Hmm ... I think there are two notes missing at main theme. Will be
hard to get the groove (dam dam dam deedam deedam dam dam dam dam) without them:

G----------------5--------- C chord
D --------7-5--7-----------
A -3-3-3-------------------
A-------------------5-5-5-5

G-------------------------- F chord
D -------------------------
A ---------------3---------
A--1-1-1--3-1--3----5-5-5-5

0 reply
jason1wrn 10 Apr 05, 2017 09:11 PM

👍

guest
You may want to rate the tab now too:
select rating
Wanna post a correction for this tab? Suggest correction