Oops, an error
Loading. Please wait.

Lovestoned I Think She Knows Interlude bass

4,816 views 3 this week
2 commentsread comments
1 2 3 4 5
x 5
add to favorites
×
Save as Personal and add changes to this tab that will be seen only by you. Learn more ›
×
You can save this tab as Personal to edit and correct it or add notes. All changes will be seen only by you. Learn more »
launch autoscroll
font size
0
reset
guitar tuner
edit
Autoscroll
slow
fast
+/-
esc
set tempo
stop
Author
Difficulty
Justin Timberlake
Lovestoned/I think she knows interlude
2006

Keeping it simple

Main Riff

G---------------------------------------|
D------------1-3------------------------|
A-----0-2-3-----------------------------|
E---2------------2----------------------|

Just repeat almost entire song...
Suggest correction
Creating personal tab
Creating personal tab
You can edit any tab online and save it as your Personal.

You can edit, replace or remove any tab part or add personal notes – all changes will be seen only by you.

Personal tabs can be accessed anytime from any device, even offline.
Learn more »
comments
print report bad tab
2 comments total.
+3 reply
El Jimbo 117 Nov 01, 2007 06:04 PM

G---------------------------------------|
D------------2-4------------------------|
A-----0-2-4-----------------------------|
E---2------------2----------------------|

^^ sounds better

+1 reply
eckmann88 446 Nov 06, 2007 04:44 PM

What he said, your bass must be out of tune.

guest
You may want to rate the tab now too:
select rating
Wanna post a correction for this tab? Suggest correction