Oops, an error
Loading. Please wait.

Mirrors bass

version 1
version 1

Whole song

6,655 views 27 this week
no commentswrite comment
1 2 3 4 5
1 last vote to show rating
add to favorites
×
Save as Personal and add changes to this tab that will be seen only by you. Learn more ›
×
You can save this tab as Personal to edit and correct it or add notes. All changes will be seen only by you. Learn more »
launch autoscroll
font size
0
reset
guitar tuner
edit
Autoscroll
slow
fast
+/-
esc
set tempo
stop
Author
Mirrors
Justin Timberlake


INTRO:
 
G|----------------|----------------|----------------|----------------|
D|----------------|----------------|----------------|----------------|
A|3-----------2-0-|--------------0-|----------------|--------0---0-2-|
E|----------------|3-----------3---|1---------------|----------3-----|

 
G|----------------|----------------|----------------|----------------|
D|----------------|----------------|----------------|----------------|
A|3-----------2-0-|--------------0-|----------------|--------0---0-2-|
E|----------------|3-----------3---|1---------------|----------3-----|


G|----------------|----------------|----------------|----------------|
D|----------------|----------------|0---------------|----------------|
A|3-----------2-0-|------------0-3-|------------3-2-|0-----------0-2-|
E|----------------|3---------------|----------------|----------------|

 
G|----------------|----------------|----------------|----------------|
D|----------------|----------------|----------------|----------------|
A|3-----------2-0-|--------------0-|----------------|----------------|
E|----------------|3-----------3---|1---------------|----------------|


Verse:
G|----------------|----------------|----------------|----------------|
D|----------------|----------------|0---------------|----------------|
A|0---------------|----------------|----------------|----------------|
E|----------------|0---------------|----------------|1---------------|

G|----------------|----------------|----------------|----------------|
D|----------------|----------------|0---------------|0---------------|
A|0---------------|----------------|----------------|----------------|
E|----------------|0---------------|----------------|-------------0h4|

G|----------------|----------------|----------------|----------------|
D|----------------|----------------|0---------------|----------------|
A|0---------------|----------------|----------------|----------------|
E|----------------|0---------------|----------------|1---------------|

G|----------------|----------------|----------------|----------------|
D|----------------|----------------|0---------------|0---------------|
A|0---------------|----------------|----------------|----------------|
E|----------------|0---------------|----------------|-------------0h4|


PRE-CHORUS:
G|----------------|----------------|----------------|----------------|
D|----------------|----------------|0---------------|----------------|
A|0---------------|----------------|----------------|----------------|
E|----------------|0---------------|----------------|1---------------|

G|----------------|----------------|----------------|----------------|
D|----------------|----------------|0---------------|----------------|
A|0---------------|----------------|----------------|----------------|
E|----------------|0---------------|----------------|----------------|


CHORUS:
G|----------------|----------------|----------------|----------------|
D|----------------|----------------|----------------|----------------|
A|3---------------|----------------|----------------|----------------|
E|----------------|3---------------|1---------------|1---------------|

G|----------------|----------------|----------------|----------------|
D|----------------|----------------|----------------|----------------|
A|3---------------|----------------|----------------|----------------|
E|----------------|3---------------|1---------------|1---------------|

G|----------------|----------------|----------------|----------------|
D|----------------|----------------|----------------|----------------|
A|3---------------|----------------|5---------------|----------------|
E|----------------|3---------------|----------------|5---------------|

G|----------------|----------------|----------------|----------------|
D|----------------|----------------|----------------|----------------|
A|3---------------|----------------|----------------|----------------|
E|----------------|3---------------|1---------------|1---------------|

G|----------------|----------------|----------------|----------------|
D|----------------|----------------|----------------|----------------|
A|3---------------|----------------|----------------|----------------|
E|----------------|3---------------|1---------------|1---------------|

G|----------------|----------------|----------------|----------------|
D|----------------|----------------|----------------|----------------|
A|3---------------|----------------|5---------------|----------------|
E|----------------|3---------------|----------------|5---------------|

G|----------------|----------------|----------------|----------------|
D|----------------|----------------|----------------|----------------|
A|3---------------|----------------|----------------|----------------|
E|----------------|3---------------|1---------------|1------------0h4|


Verse:
G|----------------|----------------|----------------|----------------|
D|----------------|----------------|0---------------|----------------|
A|0---------------|----------------|----------------|----------------|
E|----------------|0---------------|----------------|1---------------|

G|----------------|----------------|----------------|----------------|
D|----------------|----------------|0---------------|0---------------|
A|0---------------|----------------|----------------|----------------|
E|----------------|0---------------|----------------|-------------0h4|

G|----------------|----------------|----------------|----------------|
D|----------------|----------------|0---------------|----------------|
A|0---------------|----------------|----------------|----------------|
E|----------------|0---------------|----------------|1---------------|

G|----------------|----------------|----------------|----------------|
D|----------------|----------------|0---------------|0---------------|
A|0---------------|----------------|----------------|----------------|
E|----------------|0---------------|----------------|-------------0h4|


PRE-CHORUS:
G|----------------|----------------|----------------|----------------|
D|----------------|----------------|0---------------|----------------|
A|0---------------|----------------|----------------|----------------|
E|----------------|0---------------|----------------|1---------------|

G|----------------|----------------|----------------|----------------|
D|----------------|----------------|0---------------|----------------|
A|0---------------|----------------|----------------|----------------|
E|----------------|0---------------|----------------|----------------|


CHORUS:
G|----------------|----------------|----------------|----------------|
D|----------------|----------------|----------------|----------------|
A|3---------------|----------------|----------------|----------------|
E|----------------|3---------------|1---------------|1---------------|

G|----------------|----------------|----------------|----------------|
D|----------------|----------------|----------------|----------------|
A|3---------------|----------------|----------------|----------------|
E|----------------|3---------------|1---------------|1---------------|

G|----------------|----------------|----------------|----------------|
D|----------------|----------------|----------------|----------------|
A|3---------------|----------------|5---------------|----------------|
E|----------------|3---------------|----------------|5---------------|

G|----------------|----------------|----------------|----------------|
D|----------------|----------------|----------------|----------------|
A|3---------------|----------------|----------------|----------------|
E|----------------|3---------------|1---------------|1---------------|

G|----------------|----------------|----------------|----------------|
D|----------------|----------------|----------------|----------------|
A|3---------------|----------------|----------------|----------------|
E|----------------|3---------------|1---------------|1---------------|

G|----------------|----------------|----------------|----------------|
D|----------------|----------------|----------------|----------------|
A|3---------------|----------------|5---------------|----------------|
E|----------------|3---------------|----------------|5---------------|

G|----------------|----------------|----------------|----------------|
D|----------------|----------------|----------------|----------------|
A|3---------------|----------------|----------------|----------------|
E|----------------|3---------------|1---------------|1------------0h4|


Bridge:
G|----------------|----------------|----------------|----------------|
D|----------------|----------------|----------------|----------------|
A|5---------------|5---------------|----------------|----------------|
E|----------------|----------------|5---------------|5---------------|

G|----------------|----------------|----------------|----------------|
D|----------------|----------------|----------------|----------------|
A|5---------------|5---------------|----------------|----------------|
E|----------------|----------------|5---------------|3---------------|

G|----------------|----------------|----------------|----------------|
D|----------------|----------------|----------------|----------------|
A|5---------------|5---------------|----------------|----------------|
E|----------------|----------------|5---------------|5---------------|

G|----------------|----------------|----------------|----------------|
D|----------------|----------------|----------------|----------------|
A|----------------|----------------|----------------|----------------|
E|1---------------|1---------------|1---------------|----------------|


CHORUS:
G|----------------|----------------|----------------|----------------|
D|----------------|----------------|----------------|----------------|
A|3---------------|----------------|----------------|----------------|
E|----------------|3---------------|1---------------|1---------------|

G|----------------|----------------|----------------|----------------|
D|----------------|----------------|----------------|----------------|
A|3---------------|----------------|----------------|----------------|
E|----------------|3---------------|1---------------|1---------------|

G|----------------|----------------|----------------|----------------|
D|----------------|----------------|----------------|----------------|
A|3---------------|----------------|5---------------|----------------|
E|----------------|3---------------|----------------|5---------------|

G|----------------|----------------|----------------|----------------|
D|----------------|----------------|----------------|----------------|
A|3---------------|----------------|----------------|----------------|
E|----------------|3---------------|1---------------|1---------------|

G|----------------|----------------|----------------|----------------|
D|----------------|----------------|----------------|----------------|
A|3---------------|----------------|----------------|----------------|
E|----------------|3---------------|1---------------|1---------------|

G|----------------|----------------|----------------|----------------|
D|----------------|----------------|----------------|----------------|
A|3---------------|----------------|5---------------|----------------|
E|----------------|3---------------|----------------|5---------------|

G|----------------|----------------|----------------|----------------|
D|----------------|----------------|----------------|----------------|
A|3---------------|----------------|----------------|----------------|
E|----------------|3---------------|1---------------|1------------0h4|


            
            
Suggest correction
Creating personal tab
Creating personal tab
You can edit any tab online and save it as your Personal.

You can edit, replace or remove any tab part or add personal notes – all changes will be seen only by you.

Personal tabs can be accessed anytime from any device, even offline.
Learn more »
Give kudos to tab author, rate the tab!
1 2 3 4 5
comments
print report bad tab
guest
You may want to rate the tab now too:
select rating
Wanna post a correction for this tab? Suggest correction