Oops, an error
Loading. Please wait.

Mirrors tab

version 1
version 1

Whole song

Video

182,983 views 213 this week
1 commentread comment
1 2 3 4 5
x 25
add to favorites
×
Save as Personal and add changes to this tab that will be seen only by you. Learn more ›
×
You can save this tab as Personal to edit and correct it or add notes. All changes will be seen only by you. Learn more »
launch autoscroll
font size
0
reset
how to read this tab
guitar tuner
edit
Autoscroll
slow
fast
+/-
esc
set tempo
stop
________________________
   / Justin Timberlake     /
  / Mirrors               /
 / The 20/20 Experience  /
/_______________________/

  capo:   3rd fret
  key:    C major (original key: Eb major)
  chords:
          C    G    F    Dm   Am   Em   E/G#
e|   e:---0----3----1----1----0----0----0----:
B|   B:---1----3----1----3----1----0----0----:
G|   G:---0----4----2----2----2----0----1----:
D|   D:---2----5----3----0----2----2----2----:
A|   A:---3----5----3---------0----2----x----:
E|   E:--------3----1--------------0----4----:



INTRO: (instrumental chorus)
Notice how the bassline fits in neatly while strumming the chords.

  C                G                F                F
e|----------------|----------------|----------------|----------------|
B|----------------|----------------|----------------|----------------|
G|----------------|----------------|----------------|----------------|
D|----------------|----------------|----------------|----------------|
A|3-----------2-0-|--------------0-|----------------|--------0---0-2-|
E|----------------|3-----------3---|1---------------|----------3-----|

  C                G                F                F
e|----------------|----------------|----------------|----------------|
B|----------------|----------------|----------------|----------------|
G|----------------|----------------|----------------|----------------|
D|----------------|----------------|----------------|----------------|
A|3-----------2-0-|--------------0-|----------------|--------0---0-2-|
E|----------------|3-----------3---|1---------------|----------3-----|

  C                G                Dm               Am
e|----------------|----------------|----------------|----------------|
B|----------------|----------------|----------------|----------------|
G|----------------|----------------|----------------|----------------|
D|----------------|----------------|0---------------|----------------|
A|3-----------2-0-|------------0-3-|------------3-2-|0-----------0-2-|
E|----------------|3---------------|----------------|----------------|

  C                G                F                F
e|----------------|----------------|----------------|----------------|
B|----------------|----------------|----------------|----------------|
G|----------------|----------------|----------------|----------------|
D|----------------|----------------|----------------|----------------|
A|3-----------2-0-|--------------0-|----------------|----------------|
E|----------------|3-----------3---|1---------------|----------------|


  Meanwhile an electric guitar plays this 4x.
  This is also played in the CHORUS, with a little lower volume.

  C                G                F (Dm)           F (Am)
e|------3-3-3-----|------3-3-3-----|------1-1-1-0-0-|0-0-0-0-0-0-0-0-|
B|1-1-1-------1-1-|0-0-0-------0-0-|----------------|----------------|
G|----------------|----------------|2-2-2-----------|----------------|
D|----------------|----------------|----------------|----------------|
A|----------------|----------------|----------------|----------------|
E|----------------|----------------|----------------|----------------|



[Verse]

1. "Aren't you ...
2. "Aren't you ...

 Am              Em              Dm              F
+---=---=---=---+---=---=---=---+---=---=---=---+---=---=---=---+
 something to admire, cause your shine is something like a mirror. And I can't help but
 something, an original, cause it doesn't seem merely assembled. And I can't help but

 Am              Em              Dm              Dm     E/G#
+---=---=---=---+---=---=---=---+---=---=---=---+---=---=---=---+
 notice you reflecting this heart of mine. If you
 stare cause I see truth somewhere in your eyes. Ooh, I can't

 Am              Em              Dm              F
+---=---=---=---+---=---=---=---+---=---=---=---+---=---=---=---+
 ever feel alone, and the glare makes me hard to find. Just know that I'm
 ever change without you. You reflect me. I love that about you. And if I

 Am              Em              Dm              Dm     E/G#
+---=---=---=---+---=---=---=---+---=---=---=---+---=---=---=---+
 always parallel on the other side. Cause with your hand in my
 could, I would look at us all the time. Cause with your hand in my


[Pre-Chorus]

 Am              Em              Dm              F
+---=---=---=---+---=---=---=---+---=---=---=---+---=---=---=---+
 hand and a pocket full of soul, I can tell you there's no place we couldn't go.
Just put your hand on the

 Am              Em              Dm              break
+---=---=---=---+---=---=---=---+---=---=---=---+---=---=---=---+
 past, I'm here trying to pull you through, You just gotta be strong.
Cause I don't wanna lose you


[Chorus]

 C               G               F               F
+---=---=---=---+---=---=---=---+---=---=---=---+---=---=---=---+
 now. I'm lookin' right at the other half of me. The vacancy that sat in my

 C               G               F               F
+---=---=---=---+---=---=---=---+---=---=---=---+---=---=---=---+
 heart is a space that now you hold. Show me how to fight for

 C               G               Dm              Am
+---=---=---=---+---=---=---=---+---=---=---=---+---=---=---=---+
 now. And I'll tell you baby, it was easy coming back into you once I figured it

 C               G               F               F
+---=---=---=---+---=---=---=---+---=---=---=---+---=---=---=---+
 out. You were right here all along. It's like you're my


 C               G               F               F
+---=---=---=---+---=---=---=---+---=---=---=---+---=---=---=---+
 mirror. My mirror staring back at me. I couldn't get any

 C               G               F               F
+---=---=---=---+---=---=---=---+---=---=---=---+---=---=---=---+
 bigger, with anyone else beside of me. And now it's clear as this

 C               G               Dm              Am
+---=---=---=---+---=---=---=---+---=---=---=---+---=---=---=---+
 promise that we're making two reflections into one. Cause it's like you're my

 C               G               F               F      E/G#
+---=---=---=---+---=---=---=---+---=---=---=---+---=---=---=---+
 mirror. My mirror staring back at me, staring back at me.


[Verse]


[CHORUS] (Quit the E/G# at the end.)


[Bridge]

 Dm              Dm              Am              Am
+---=---=---=---+---=---=---=---+---=---=---=---+---=---=---=---+
                                 Yesterday is history.

 Dm              Dm              Am              G
+---=---=---=---+---=---=---=---+---=---=---=---+---=---=---=---+
                                 Tomorrow's a mystery.

 Dm              Dm              Am              Am
+---=---=---=---+---=---=---=---+---=---=---=---+---=---=---=---+
                                 I can see you looking back at me. 

 F               F               F      break
+---=---=---=---+---=---=---=---+---=---=---=---+---=---=---=---+
 Keep your eyes on me. Baby, keep your eyes on me.



  For the electric guitarists, again here's a riff during this part.
  Palm mute the notes to tame the distortion.
  Dm               Dm               Am               Am
e|1-1-----1-1-----|1-1-----1-1-----|0-0-----0-0-----|0-0-----0-0-----|
B|----3-3-----3-3-|----3-3-----3-3-|----1-1-----1-1-|----1-1-----1-1-|
G|----------------|----------------|----------------|----------------|
D|----------------|----------------|----------------|----------------|
A|----------------|----------------|----------------|----------------|
E|----------------|----------------|----------------|----------------|

  Dm               Dm               Am               G
e|1-1-----1-1-----|1-1-----1-1-----|0-0-----0-0-----|0---------------|
B|----3-3-----3-3-|----3-3-----3-3-|----1-1-----1-1-|3-----0-----0-0-|
G|----------------|----------------|----------------|4-------2-2-----|
D|----------------|----------------|----------------|----------------|
A|----------------|----------------|----------------|----------------|
E|----------------|----------------|----------------|----------------|

  Dm               Dm               Am               Am
e|1-1-----1-1-----|1-1-----1-1-----|0-0-----0-0-----|0-0-----0-0-----|
B|----3-3-----3-3-|----3-3-----3-3-|----1-1-----1-1-|----1-1-----1-1-|
G|----------------|----------------|----------------|----------------|
D|----------------|----------------|----------------|----------------|
A|----------------|----------------|----------------|----------------|
E|----------------|----------------|----------------|----------------|

  F                F                F       break
e|1-1---------1-1-|1-------1---1-1-|1---------------|----------------|
B|----3-3-3-3-----|--3-3-3---3-----|----------------|----------------|
G|----------------|----------------|----------------|----------------|
D|----------------|----------------|----------------|----------------|
A|----------------|----------------|----------------|----------------|
E|----------------|----------------|----------------|----------------|


[CHORUS] (chord instruments out, except the vocal harmonies)

[CHORUS] (lead vocals out, string arrangement up front)


[FINALE]
 Am              Em              Dm              Dm Am
+---=---=---=---+---=---=---=---+---=---=---=---+---=---=---=---+
This chord progression is repeated throughout the rest of the song.


"
You are, you are the love of my life + Aah

Now, you're the inspiration for this precious song
And I just wanna see your face light up since you put me on
So now I say goodbye to the old me - it's already gone
And I can't wait wait wait wait wait to get you home
Just to let you know, you are

You are, you are the love of my life + Aah

Girl, you're my reflection, all I see is you
My reflection in everything I do
You're my reflection, and all I see is you
My reflection in everything I do

You are, you are the love of my life + Aah
"



------------------------------------------------------------------------------
 17th /February /13
 Just mail me at Maitinin@gmail.com with questions, comments and corrections!
------------------------------------------------------------------------------



 " Maitinin writing here - the author of this tab.

   The past 11 years, I have generated 10,318,000 views and 815 top-rated tabs for this site.
   If you want to support an eager contributor like me, check out my own site:


   _____  http://www.PlayLikeTheGreats.com  _____


   Here I will continue to upload and improve my transcriptions.

   Best regards,
   Maitinin

   July, 2015 "

            
            
Suggest correction
Creating personal tab
Creating personal tab
You can edit any tab online and save it as your Personal.

You can edit, replace or remove any tab part or add personal notes – all changes will be seen only by you.

Personal tabs can be accessed anytime from any device, even offline.
Learn more »
comments
print report bad tab
1 comment total.
+1 reply
edsirucha 42 Sep 12, 2013 03:43 PM

great tab played it n had fun thx n keep it up Jon

guest
You may want to rate the tab now too:
select rating
Wanna post a correction for this tab? Suggest correction