Oops, an error
Loading. Please wait.

Senorita tab

version 4
version 4

Whole song

Interactive

39,904 views 27 this week
1 commentread comment
1 2 3 4 5
x 8
add to favorites
×
Save as Personal and add changes to this tab that will be seen only by you. Learn more ›
×
You can save this tab as Personal to edit and correct it or add notes. All changes will be seen only by you. Learn more »
launch autoscroll
font size
0
reset
how to read this tab
guitar tuner
edit
Autoscroll
slow
fast
+/-
esc
set tempo
stop
Senorita

Originally Tabbed by Dermot Bohan.

Additional tab by Stephen Kempin

96 BPM. Gb Major.


VERSE/CHORUS:

    Bb7(b9)   Bb+      Bb7   Bb7(#5)         Ebm9      Ab11     Gb11
e||---6-------(6)-------6----(5)----------|-------------6---------9-(4)------||
b||---9--------7--------6-----6-----------|---6---------7---------9-(5)------||
g||---7--------7--------7-----6-----------|---6---------6---------9-(4)------||
d||---6--------8--------6-----5-----------|---4---------6---------9-(4)------||
a||---8--------x--------8-----x-----------|---6-------------------9----------||
e||---6--------6--------6-----6-----------|----------------------------------||


BRIDGE:

    Dmaj7/E   Amaj9   Dmaj7/E   Amaj9          Cmaj7/D    Gmaj9      C
e||---9--------4--------9--------4-----------|---7---------5---------5----------||
b||---7--------2--------7--------2-----------|---5---------3---------5----------||
g||---7--------4--------7--------4-----------|---5---------4---------5----------||
d||---7--------2--------7--------2-----------|---5---------4---------5----------||
a||---7--------0--------7--------0-----------|---5---------x---------5----------||
e||------------------------------------------|-------------3--------------------||



NOTE:
1st and 3rd chords [Bb7(b9) & Bb7] : Play these as barre chords
2nd and  4th chords [Bb+ and Bb7(#5)] : I play the root note (6th fret on low E 
string) with my thumb.

Last chord of the bridge is something C based, unclear exactly what.

Notes in (Brackets):  Leave out these notes until comfortable playing them.

Last chord [Gb11] : There's a choice of 2 chord shapes, whichever you're more comfortable with.


***********************************
x   Dead note
***********************************
Suggest correction
Creating personal tab
Creating personal tab
You can edit any tab online and save it as your Personal.

You can edit, replace or remove any tab part or add personal notes – all changes will be seen only by you.

Personal tabs can be accessed anytime from any device, even offline.
Learn more »
comments
print report bad tab
1 comment total.
0 reply
GringoTzarr 10 Jan 23, 2014 03:40 AM

Good tab man, though to me the last chord sounds like Abm7 = )

guest
You may want to rate the tab now too:
select rating
Wanna post a correction for this tab? Suggest correction