Oops, an error
Loading. Please wait.

Suit Tie Tab

9,302 views 9 this week
no commentswrite comment
1 2 3 4 5
please rate
add to favorites
launch autoscroll
font size
0
reset
how to read this tab
guitar tuner
Autoscroll
slow
fast
+/-
esc
set tempo
stop
Help us to improve Ultimate-Guitar.com Take our survey!
×
Author
Difficulty
intermediate
                              Justin Timberlake – Suit Tie

This is how I interpreted this song.  There are many instruments, so I’m sure I added
non-guitar notes to the chords or perceived them in a different way.  Either way, it felt
like it was in D major, and it sounded good.  Could be perceived as B minor.  You have 
to understand the feel, and the groove of the tune to be able to play-along correctly.


Intro/Link

   Bmsus4   (D in bass)
e|-------------------------|
b|-5-5---5---5---5-5-------|
G|-4-4---4---4---4-4-------|
D|-4-4---4---4---4-4-------|
A|-5-5---5---5---5-5-------|
E|-------------------------|

Verses
          Gmaj7         G6   Gmaj7
e|-------------------------------------|
b|-------------------------------------|
G|--------11-11-11-11----9---11--------|
D|--------12-12-12-12---12---12--------|
A|--------10-10-10-10---10---10--------| x6
E|-------------------------------------|

  Dmaj7/A
e|---------------------------------|
b|---------------------------------|
G|-6-------6---6-6---6---6---6-6-6-|
D|-4-------4---4-4---4---4---4-4-4-|
A|-5-------5---5-5---5---5---5-5-5-| x2
E|-5-------5---5-5---5---5---5-5-5-|

Chorus
e|-------------------------------------|
b|-------------------------------------|
G|-11---x---11---x-x-11---11-11--------|
D|-12---x---12---x-x-12---12-12--------|
A|-10---x---10---x-x-10---10-10--------| x2
E|-------------------------------------|

e|---------------------------------|
b|---------------------------------|
G|-6-------------------------------|
D|-4-------------------------------|
A|-5--------(same strum as --------| x2
E|-5----------previous chord)------|



Bridge
e|------------2-------------|------------0-------------|-----------2------------|
b|------------2-------------|------------0-------------|-----------0------------|
G|------------2-------------|------------2-------------|-----------2------------|
D|-----------------------0--|-2h4---2-4-----0-------0--|-0h2---0--------------0-|
A|---------------0---2------|-------------------2------|---------2----0---2-----|
E|-0h2---0-2----------------|--------------------------|------------------------|


e|-----------0------------|
b|-----------0------------|
G|-----------0------------|
D|-0h2---0--------------0-|
A|---------2----0---2-----|
E|------------------------|
Suggest correction
Give kudos to tab author, rate the tab!
1 2 3 4 5
comments
print report bad tab
guest
You may want to rate the tab now too:
select rating
Wanna post a correction for this tab? Suggest correction