Oops, an error
Loading. Please wait.

Summer Love Tab

version 1
version 1

Whole song

Interactive

12,469 views 1 this week
3 commentsread comments
1 2 3 4 5
x 6
add to favorites
launch autoscroll
font size
0
reset
how to read this tab
guitar tuner
Autoscroll
slow
fast
+/-
esc
set tempo
stop
Help us to improve Ultimate-Guitar.com Take our survey!
×
Author
Difficulty
This is pretty much the line all the way through, so just play it
over and over again until the song is finished.
|--0-2-3-2-0----------0----------------|
|------------3-1---3-------------------|
|--------------------------------------|
|--------------------------------------|
|--------------------------------------|
|--------------------------------------|
Or, you can play this alternate version.
|-0-2-3-2-0----------0-----------------|
|-0-2-3-2-0-3-1---3--0-----------------|
|-----------2-0---2--------------------|
|--------------------------------------|
|--------------------------------------|
|--------------------------------------|
Suggest correction
comments
print report bad tab
3 comments total.
0 reply
Naik345 10 Dec 24, 2007 12:04 PM

ye this is gud

0 reply
M.Vengeance 92 Jun 06, 2009 04:23 PM

u should the simple plan version...

+1 reply
M.Vengeance 92 Jun 06, 2009 04:27 PM

i think it goes
e--------------------|
b--------------------|
g--------------------|
d-5-7-8-7-5-------5--|
a-----------8-6-8----|
e--------------------|

guest
You may want to rate the tab now too:
select rating
Wanna post a correction for this tab? Suggest correction