Oops, an error
Loading. Please wait.

Frail Sail Tab

2,354 views 6 this week
1 commentread comment
1 2 3 4 5
x 3
add to favorites
launch autoscroll
font size
0
reset
how to read this tab
guitar tuner
Autoscroll
slow
fast
+/-
esc
set tempo
stop
Help us to improve Ultimate-Guitar.com Take our survey!
×
Author
Difficulty
novice
                            Frail Sail by Justin Vernon / Bon Iver

                                      Tabbed by: Sam Hall

My brother showed me this song and this is my attempt at tabbing this out.

Please leave a comment and give me some feedback.

Here is his website: http://www.boniver.org/


  Lead Guitar I

e|-------3---------3-| x3
B|--3--3-3--3--3-3-3-|
G|--3--3-3--3--3-3-3-|
D|-------------------|
A|-------------------|
E|-------------------|

  Rhythm Guitar I

e|----------------------------------|
B|----------------------------------|
G|----------------------------------|
D|--1-1-1-1-1-1-1-1-1-1-1-1-1-1-1-1-|
A|----------------------------------|
E|----------------------------------|

  Rhythm Guitar I cont.

e|----------------------------------|
B|----------------------------------|
G|----------------------------------|
D|----------------------------------|
A|--3-3-3-3-3-3-3-3-3-3-3-3-3-3-3-3-|
E|----------------------------------|

  Rhythm Guitar I cont.

e|----------------------------------|
B|----------------------------------|
G|----------------------------------|
D|----------------------------------|
A|--1-1-1-1-1-1-1-1-1-1-1-1-1-1-1-1-|
E|----------------------------------|

And then it all repeats itself. Over and over.
And that's it!
Suggest correction
Give kudos to tab author, rate the tab!
1 2 3 4 5
comments
print report bad tab
1 comment total.
+1 reply
curlymccr3 10 Nov 21, 2010 11:30 AM

This is probably not entirely correct either, but it sounds a whole lot more accurate.

Lead Guitar 1
e|-------3---------3-| x3
B|--4--4-4--4--4-4-4-|
G|-------------------|
D|-------------------|
A|-------------------|
E|-------------------|

guest
You may want to rate the tab now too:
select rating
Wanna post a correction for this tab? Suggest correction