Oops, an error
Loading. Please wait.

Choices chords

8,107 views 186 this week
6 commentsread comments
1 2 3 4 5
x 25
add to favorites
×
Save as Personal and add changes to this tab that will be seen only by you. Learn more ›
×
You can save this tab as Personal to edit and correct it or add notes. All changes will be seen only by you. Learn more »
launch autoscroll
font size
0
reset
transpose
0
reset
simplify chords
display chords
guitar tuner
edit
Autoscroll
slow
fast
+/-
esc
set tempo
stop
About this tab version
Lyrics and chords as well as tablature of fingerstyle guitar. Capo 3rd fret. Was this info helpful? Yes No
Strumming
There is no strumming pattern for this song yet. and get +5 IQ
Don't be intimidated by the chord names, 
use the tabbed chord fingering as a model

[Intro]
Am7              Fadd9          C                      G
e|-----------3--|-----------3--|----------3-----------|-----------3--|
B|--------1-----|--------1-----|-------1-----1-----1--|--------0-----|
G|-----0--------|-----2--------|----0-----------0-----|--------------|
D|--------------|--------------|----------------------|-----0--------|
A|--0-----------|--------------|--3-------------------|--------------|
E|--------------|--1-----------|----------------------|--3-----------|

[Verse]
Am7              Fadd9          C                      G
e|-----------3--|-----------3--|----------3-----------|-----------3--|
B|--------1-----|--------1-----|-------1-----1-----1--|--------0-----|
G|-----0--------|-----2--------|----0-----------0-----|--------------|
D|--------------|--------------|----------------------|-----0--------|
A|--0-----------|--------------|--3-------------------|--------------|
E|--------------|--1-----------|----------------------|--3-----------|

Am               Fadd9          Cadd9          G
e|-----------5--|-----------3--|----------0---|-----------3--|
B|--------1-----|--------1-----|-------3------|--------0-----|
G|-----0--------|-----2--------|----0---------|--------------|
D|--------------|--------------|--------------|-----0--------|
A|--0-----------|--------------|--3-----------|--------------|
E|--------------|--1-----------|--------------|--3-----------|

[Verse 1]
Am7          Fadd9
Caught up in circles.
  C                G
I don't know which way to turn.
   Am                  Fadd9
My heart rules; Had my head fooled.
     Cadd9                  G
Too late, I've fallen in love.
   Am7                  Fadd9
To do what's right is a constant fight.
      C              G
Don't want to let my heart decide.
 Am7                 Fadd9  C   G
I want God's Word to be my guide.
     Am7        Fadd9
It's so hard to break free.
     C                 G
This desperate heart inside of me.
      Am                   Fadd9
Makes wrong feel right and right feel wrong,
    Cadd9             G
But Jehovah makes me strong

[Bridge]
          F           G
He says, "Know that I love you
  F             G
I don't want to lose you.
C              G
Trust in me in all you do.
C               G
I'll be here to help you through."
    Am7                   Fadd9
Our life is shaped by the choice we make.
   C               G
We have to realize what's at stake.
Am7                          Fadd9
Right from the start, It's a war for our heart,
         C             G
But it's ours to give away.
   C            G
To safeguard it means our life.

Am7   Fadd9   C   G

[Verse] 
Am7               Fadd9
Looking back, the choice I made
   C           G
To do things Jehovah's way,
Am7              Fadd9
Seemed so hard, emotion's strong,
      Cadd9             G
But Jehovah helped me along.
Suggest correction
Creating personal tab
Creating personal tab
You can edit any tab online and save it as your Personal.

You can edit, replace or remove any tab part or add personal notes – all changes will be seen only by you.

Personal tabs can be accessed anytime from any device, even offline.
Learn more »
comments
print report bad tab
6 comments total. Showing first comments.
0 reply
Paoladia3 10 Apr 01, 2017 12:48 PM

👍

+1 reply
Paoladia3 10 Apr 01, 2017 12:48 PM

Good job amazings cords

0 reply
timomatic 10 Jun 09, 2017 02:49 AM

Awesome!

guest
You may want to rate the tab now too:
select rating
Wanna post a correction for this tab? Suggest correction