Oops, an error
Loading. Please wait.

Faith Can Make Things Happen tab

version 1
version 1

Whole song

  • This version contains only the main guitar part. I... Show more
  • Tabbed to make tuning easier for player.
1,021 views 54 this week
2 commentsread comments
1 2 3 4 5
x 4
add to favorites
×
Save as Personal and add changes to this tab that will be seen only by you. Learn more ›
×
You can save this tab as Personal to edit and correct it or add notes. All changes will be seen only by you. Learn more »
launch autoscroll
font size
0
reset
how to read this tab
guitar tuner
edit
Autoscroll
slow
fast
+/-
esc
set tempo
stop
About this tab version
This version contains only the main guitar part. If it would be better with the lyrics, request it in the comments. Was this info helpful? Yes No
Tune low E string down to D, and A down to G (G6 Tuning)

[Intro]
e|----------|----------------|------------|----------------|
B|------7---|----5-----5---5-|-------8----|----7-----7---7-|
G|----------|----------------|------------|----------------|
D|----7---7-|-5-----5----5---|----9-----9-|-7-----7----7---|
G|----------|----------------|------------|----------------|
D|-0--------|----------------|-0----------|----------------|

e|----------|----------------|------------|----------------|
B|------7---|----5-----5---5-|-------8----|----7-----7---7-|
G|----------|----------------|------------|----------------|
D|----7---7-|-5-----5----5---|----9-----9-|-7-----7----7---|
G|----------|----------------|------------|----------------|
D|-0--------|----------------|-0----------|----------------|

[Verse]
e|----------|----------------|------------|----------------|
B|------7---|----5-----5---5-|-------8----|----7-----7---7-|
G|----------|----------------|------------|----------------|
D|----7---7-|-5-----5----5---|----9-----9-|-7-----7----7---|
G|----------|----------------|------------|----------------|
D|-0--------|----------------|-0----------|----------------|

e|----------|----------------|------------|----------------|
B|------7---|----5-----5---5-|-------8----|----7-----7---7-|
G|----------|----------------|------------|----------------|
D|----7---7-|-5-----5----5---|----9-----9-|-7-----7----7---|
G|----------|----------------|------------|----------------|
D|-0--------|----------------|-0----------|----------------|

e|----------|----------------|------------|-------------------|
B|------7---|----5-----5---5-|-------8----|----10-----10---10-|
G|----------|----------------|------------|-------------------|
D|----7---7-|-5-----5----5---|----9-----9-|-11----11----11----|
G|-0--------|----------------|-0----------|-------------------|
D|----------|----------------|------------|-------------------|

e|----------|----------------|------------|----------------|
B|------7---|----5-----5---5-|-------8----|----7-----7---7-|
G|----------|----------------|------------|----------------|
D|----7---7-|-5-----5----5---|----9-----9-|-7-----7----7---|
G|----------|----------------|------------|----------------|
D|-0--------|----------------|-0----------|----------------|

e|----------|----------------|------------|----------------|
B|------7---|----5-----5---5-|-------8----|----7-----7---7-|
G|----------|----------------|------------|----------------|
D|----7---7-|-5-----5----5---|----9-----9-|-7-----7----7---|
G|----------|----------------|------------|----------------|
D|-0--------|----------------|-0----------|----------------|

e|----------|----------------|------------|----------------|
B|------7---|----5-----5---5-|-------8----|----7-----7---7-|
G|----------|----------------|------------|----------------|
D|----7---7-|-5-----5----5---|----9-----9-|-7-----7----7---|
G|----------|----------------|------------|----------------|
D|-0--------|----------------|-0----------|----------------|

e|----------|----------------|------------|----------------|
B|------7---|----5-----5---5-|-------3----|----2-----2---2-|
G|----------|----------------|------------|----------------|
D|----7---7-|-5-----5----5---|----4-----4-|-2----2-----2---|
G|-0--------|----------------|-0----------|----------------|
D|----------|----------------|------------|----------------|

e|----------|----------------|------------|
B|------7---|----5-----5---5-|---0---2--3-|
G|----------|----------------|----------2-|
D|----7---7-|-5-----5----5---|-0---2----0-|
G|----------|----------------|-0---2------|
D|-0--------|----------------|------------|

[Chorus]
e|--2---2--|-0----0---0--0--|--3---3--|-2----2---2--2--|
B|--3---3--|-2----2---2--2--|--3---3--|-3----3---3--3--|
G|--2---2--|-2----2---2--2--|--0---0--|-2----2---2--2--|
D|--4---4--|-2----2---2--2--|--0---0--|-0----0---0--0--|
G|--4---4--|-2----2---2--2--|--0---0--|-2--------------|
D|---------|----------------|---------|-0--------------|

e|--2---2--2--|-0----0--0--|--3--0--2-|
B|--3---3--3--|-2----2--2--|--3--2--3-|
G|--2---2--2--|-2----2--2--|--0--2--2-|
D|--4---4--4--|-2----2--2--|--0--2--0-|
G|--4---4--4--|-2----2--2--|--0--2--2-|
D|------------|------------|--------0-|

e|--2---2--|-0----0---0--0--|--3---3--|-2----2---2--2--|
B|--3---3--|-2----2---2--2--|--3---3--|-3----3---3--3--|
G|--2---2--|-2----2---2--2--|--0---0--|-2----2---2--2--|
D|--4---4--|-2----2---2--2--|--0---0--|-0----0---0--0--|
G|--4---4--|-2----2---2--2--|--0---0--|-2--------------|
D|---------|----------------|---------|-0--------------|

e|--2---2--2--|-0----0--0--|--3----3---3--3------|
B|--3---3--3--|-2----2--2--|--3----3---3--3------|
G|--2---2--2--|-2----2--2--|--0----0---0--0--<5>-|
D|--4---4--4--|-2----2--2--|--0----0---0--0--<5>-|
G|--4---4--4--|-2----2--2--|--0----0---0--0--<5>-|
D|------------|------------|---------------------|

[Verse 2]
e|----------|----------------|------------|----------------|
B|------7---|----5-----5---5-|-------8----|----7-----7---7-|
G|----------|----------------|------------|----------------|
D|----7---7-|-5-----5----5---|----9-----9-|-7-----7----7---|
G|----------|----------------|------------|----------------|
D|-0--------|----------------|-0----------|----------------|

e|----------|----------------|------------|----------------|
B|------7---|----5-----5---5-|-------8----|----7-----7---7-|
G|----------|----------------|------------|----------------|
D|----7---7-|-5-----5----5---|----9-----9-|-7-----7----7---|
G|----------|----------------|------------|----------------|
D|-0--------|----------------|-0----------|----------------|

e|----------|----------------|------------|----------------|
B|------7---|----5-----5---5-|-------8----|----7-----7---7-|
G|----------|----------------|------------|----------------|
D|----7---7-|-5-----5----5---|----9-----9-|-7-----7----7---|
G|----------|----------------|------------|----------------|
D|-0--------|----------------|-0----------|----------------|

e|----------|----------------|------------|----------------|
B|------7---|----5-----5---5-|-------8----|----7-----7---7-|
G|----------|----------------|------------|----------------|
D|----7---7-|-5-----5----5---|----9-----9-|-7-----7----7---|
G|----------|----------------|------------|----------------|
D|-0--------|----------------|-0----------|----------------|

e|----------|----------------|------------|-------------------|
B|------7---|----5-----5---5-|-------8----|----10-----10---10-|
G|----------|----------------|------------|-------------------|
D|----7---7-|-5-----5----5---|----9-----9-|-11----11----11----|
G|-0--------|----------------|-0----------|-------------------|
D|----------|----------------|------------|-------------------|

e|----------|----------------|------------|----------------|
B|------7---|----5-----5---5-|-------8----|----7-----7---7-|
G|----------|----------------|------------|----------------|
D|----7---7-|-5-----5----5---|----9-----9-|-7-----7----7---|
G|----------|----------------|------------|----------------|
D|-0--------|----------------|-0----------|----------------|

e|----------|----------------|------------|----------------|
B|------7---|----5-----5---5-|-------8----|----7-----7---7-|
G|----------|----------------|------------|----------------|
D|----7---7-|-5-----5----5---|----9-----9-|-7-----7----7---|
G|----------|----------------|------------|----------------|
D|-0--------|----------------|-0----------|----------------|

e|----------|----------------|------------|----------------|
B|------7---|----5-----5---5-|-------8----|----7-----7---7-|
G|----------|----------------|------------|----------------|
D|----7---7-|-5-----5----5---|----9-----9-|-7-----7----7---|
G|----------|----------------|------------|----------------|
D|-0--------|----------------|-0----------|----------------|

e|----------|----------------|------------|----------------|
B|------7---|----5-----5---5-|-------3----|----2-----2---2-|
G|----------|----------------|------------|----------------|
D|----7---7-|-5-----5----5---|----4-----4-|-2----2-----2---|
G|-0--------|----------------|-0----------|----------------|
D|----------|----------------|------------|----------------|

e|----------|----------------|------------|
B|------7---|----5-----5---5-|---0---2--3-|
G|----------|----------------|----------2-|
D|----7---7-|-5-----5----5---|-0---2----0-|
G|----------|----------------|-0---2------|
D|-0--------|----------------|------------|

[Chorus]
e|--2---2--|-0----0---0--0--|--3---3--|-2----2---2--2--|
B|--3---3--|-2----2---2--2--|--3---3--|-3----3---3--3--|
G|--2---2--|-2----2---2--2--|--0---0--|-2----2---2--2--|
D|--4---4--|-2----2---2--2--|--0---0--|-0----0---0--0--|
G|--4---4--|-2----2---2--2--|--0---0--|-2--------------|
D|---------|----------------|---------|-0--------------|

e|--2---2--2--|-0----0--0--|--3--0--2-|
B|--3---3--3--|-2----2--2--|--3--2--3-|
G|--2---2--2--|-2----2--2--|--0--2--2-|
D|--4---4--4--|-2----2--2--|--0--2--0-|
G|--4---4--4--|-2----2--2--|--0--2--2-|
D|------------|------------|--------0-|

e|--2---2--|-0----0---0--0--|--3---3--|-2----2---2--2--|
B|--3---3--|-2----2---2--2--|--3---3--|-3----3---3--3--|
G|--2---2--|-2----2---2--2--|--0---0--|-2----2---2--2--|
D|--4---4--|-2----2---2--2--|--0---0--|-0----0---0--0--|
G|--4---4--|-2----2---2--2--|--0---0--|-2--------------|
D|---------|----------------|---------|-0--------------|

e|--2---2--2--|-0----0--0--|--3----3---3--3------|
B|--3---3--3--|-2----2--2--|--3----3---3--3------|
G|--2---2--2--|-2----2--2--|--0----0---0--0--<5>-|
D|--4---4--4--|-2----2--2--|--0----0---0--0--<5>-|
G|--4---4--4--|-2----2--2--|--0----0---0--0--<5>-|
D|------------|------------|---------------------|

[Bridge]
e|----------|----------------|------------|----------------|
B|------7---|----5-----5---5-|-------8----|----7-----7---7-|
G|----------|----------------|------------|----------------|
D|----7---7-|-5-----5----5---|----9-----9-|-7-----7----7---|
G|----------|----------------|------------|----------------|
D|-0--------|----------------|-0----------|----------------|

e|------7---|----9-----9---9-|-------10----|----9-----9---9-|
B|----------|----------------|-------------|----------------|
G|----7---7-|-9-----9----9---|----11----11-|-9-----9----9---|
D|----------|----------------|-------------|----------------|
G|----------|----------------|-0-----------|----------------|
D|-9--------|----------------|-------------|----------------|

e|------7---|----9-----9---9-|-------10----|----9-------7---|
B|----------|----------------|-------------|----------------|
G|----7---7-|-9-----9----9---|----11----11-|-9-------7------|
D|----------|----------------|-------------|----------------|
G|----------|----------------|-0-----------|----------------|
D|-9--------|----------------|-------------|----------------|

e|------7---|----9-----9---9-|-------10----|----9-----9---9-|
B|----------|----------------|-------------|----------------|
G|----7---7-|-9-----9----9---|----11----11-|-9-----9----9---|
D|----------|----------------|-------------|----------------|
G|----------|----------------|-0-----------|----------------|
D|-9--------|----------------|-------------|----------------|

e|------7---|----9-----9---9-|-------10----|----9-------7---|
B|----------|----------------|-------------|----------------|
G|----7---7-|-9-----9----9---|----11----11-|-9-------7------|
D|----------|----------------|-------------|----------------|
G|----------|----------------|-0-----------|----------------|
D|-9--------|----------------|-------------|----------------|

e|----------|-------------|--------------|--------------|
B|------7---|----5-----5--|-------3------|-----1-----1--|
G|----------|-------------|--------------|--------------|
D|----7---7-|-5-----5-----|----4-----4---|-2-----2------|
G|-0--------|-------------|--------------|--------------|
D|----------|-------------|-0------------|--------------|

e|----------|-------------|-3---------2--2-|
B|------0---|----2-----2--|-3----2----3--3-|
G|----------|-------------|-0----2----2--2-|
D|----0---0-|-2-----2-----|-0----2----0--0-|
G|-0--------|-------------|-0----2---------|
D|----------|-------------|----------------|

[Chorus]
e|--2---2--|-0----0---0--0--|--3---3--|-2----2---2--2--|
B|--3---3--|-2----2---2--2--|--3---3--|-3----3---3--3--|
G|--2---2--|-2----2---2--2--|--0---0--|-2----2---2--2--|
D|--4---4--|-2----2---2--2--|--0---0--|-0----0---0--0--|
G|--4---4--|-2----2---2--2--|--0---0--|-2--------------|
D|---------|----------------|---------|-0--------------|

e|--2---2--2--|-0----0--0--|--3--0--2-|
B|--3---3--3--|-2----2--2--|--3--2--3-|
G|--2---2--2--|-2----2--2--|--0--2--2-|
D|--4---4--4--|-2----2--2--|--0--2--0-|
G|--4---4--4--|-2----2--2--|--0--2--2-|
D|------------|------------|--------0-|

e|--2---2--|-0----0---0--0--|--3---3--|-2----2---2--2--|
B|--3---3--|-2----2---2--2--|--3---3--|-3----3---3--3--|
G|--2---2--|-2----2---2--2--|--0---0--|-2----2---2--2--|
D|--4---4--|-2----2---2--2--|--0---0--|-0----0---0--0--|
G|--4---4--|-2----2---2--2--|--0---0--|-2--------------|
D|---------|----------------|---------|-0--------------|

e|--2---2--2--|-0----0--0--|--3--0--2-|
B|--3---3--3--|-2----2--2--|--3--2--3-|
G|--2---2--2--|-2----2--2--|--0--2--2-|
D|--4---4--4--|-2----2--2--|--0--2--0-|
G|--4---4--4--|-2----2--2--|--0--2--2-|
D|------------|------------|--------0-|

e|--2---2--|-0----0---0--0--|--3---3--|-2----2---2--2--|
B|--3---3--|-2----2---2--2--|--3---3--|-3----3---3--3--|
G|--2---2--|-2----2---2--2--|--0---0--|-2----2---2--2--|
D|--4---4--|-2----2---2--2--|--0---0--|-0----0---0--0--|
G|--4---4--|-2----2---2--2--|--0---0--|-2--------------|
D|---------|----------------|---------|-0--------------|

e|--2---2--2--|-0----0--0--|--3--0--2-|
B|--3---3--3--|-2----2--2--|--3--2--3-|
G|--2---2--2--|-2----2--2--|--0--2--2-|
D|--4---4--4--|-2----2--2--|--0--2--0-|
G|--4---4--4--|-2----2--2--|--0--2--2-|
D|------------|------------|--------0-|

e|--2---2--|-0----0---0--0--|--3---3--|-2----2---2--2--|
B|--3---3--|-2----2---2--2--|--3---3--|-3----3---3--3--|
G|--2---2--|-2----2---2--2--|--0---0--|-2----2---2--2--|
D|--4---4--|-2----2---2--2--|--0---0--|-0----0---0--0--|
G|--4---4--|-2----2---2--2--|--0---0--|-2--------------|
D|---------|----------------|---------|-0--------------|

e|--2---2--2--|-0----0--0--|--3--0--2-----|
B|--3---3--3--|-2----2--2--|--3--2--3-----|
G|--2---2--2--|-2----2--2--|--0--2--2-<5>-|
D|--4---4--4--|-2----2--2--|--0--2--0-<5>-|
G|--4---4--4--|-2----2--2--|--0--2--2-<5>-|
D|------------|------------|--------0-----|

e|----------|----------------|------------|
B|------7---|----5-----5---5-|---0---2--3-|
G|----------|----------------|----------2-|
D|----7---7-|-5-----5----5---|-0---2----0-|
G|----------|----------------|-0---2------|
D|-0--------|----------------|------------|

************************************

| <5> Fifth Fret Natural Harmonic

************************************

            
            
Suggest correction
Creating personal tab
Creating personal tab
You can edit any tab online and save it as your Personal.

You can edit, replace or remove any tab part or add personal notes – all changes will be seen only by you.

Personal tabs can be accessed anytime from any device, even offline.
Learn more »
comments
print report bad tab
2 comments total.
0 reply
Brandie77 10 May 11, 2017 08:39 PM

Great job! Thanks.

0 reply
Nickelbacker 10 May 17, 2017 06:19 PM

Thank you so much, brother!

guest
You may want to rate the tab now too:
select rating
Wanna post a correction for this tab? Suggest correction