Oops, an error
Loading. Please wait.

Faith Can Make Things Happen tab

version 2
version 2

Whole song

  • This version contains only the main guitar part. I... Show more
  • Tabbed to make tuning easier for player.
211 views 27 this week
no commentswrite comment
1 2 3 4 5
3 more votes to show rating
add to favorites
×
Save as Personal and add changes to this tab that will be seen only by you. Learn more ›
×
You can save this tab as Personal to edit and correct it or add notes. All changes will be seen only by you. Learn more »
launch autoscroll
font size
0
reset
how to read this tab
guitar tuner
edit
Autoscroll
slow
fast
+/-
esc
set tempo
stop
About this tab version
Tabbed to make tuning easier for player. Was this info helpful? Yes No
 Tune low E string down to D
 
  [Intro]
  e|----------|----------------|------------|----------------|
  B|------7---|----5-----5---5-|-------8----|----7-----7---7-|
  G|----------|----------------|------------|----------------|
  D|----7---7-|-5-----5----5---|----7-----7-|-7-----7----7---|
  A|----------|----------------|------------|----------------|
  D|-0--------|----------------|-0----------|----------------|
 
  e|----------|----------------|------------|----------------|
  B|------7---|----5-----5---5-|-------8----|----7-----7---7-|
  G|----------|----------------|------------|----------------|
  D|----7---7-|-5-----5----5---|----7-----7-|-7-----7----7---|
  A|----------|----------------|------------|----------------|
  D|-0--------|----------------|-0----------|----------------|
 
  [Verse]
  e|----------|----------------|------------|----------------|
  B|------7---|----5-----5---5-|-------8----|----7-----7---7-|
  G|----------|----------------|------------|----------------|
  D|----7---7-|-5-----5----5---|----7-----7-|-7-----7----7---|
  A|----------|----------------|------------|----------------|
  D|-0--------|----------------|-0----------|----------------|
 
  e|----------|----------------|------------|----------------|
  B|------7---|----5-----5---5-|-------8----|----7-----7---7-|
  G|----------|----------------|------------|----------------|
  D|----7---7-|-5-----5----5---|----7-----7-|-7-----7----7---|
  A|----------|----------------|------------|----------------|
  D|-0--------|----------------|-0----------|----------------|
 
  e|----------|----------------|------------|-------------------|
  B|------7---|----5-----5---5-|-------8----|----10-----10---10-|
  G|----------|----------------|------------|-------------------|
  D|----7---7-|-5-----5----5---|----7-----7-|-11----11----11----|
  A|----------|----------------|------------|-------------------|
  D|-5--------|----------------|-5----------|-------------------|
 
  e|----------|----------------|------------|----------------|
  B|------7---|----5-----5---5-|-------8----|----7-----7---7-|
  G|----------|----------------|------------|----------------|
  D|----7---7-|-5-----5----5---|----7-----7-|-7-----7----7---|
  A|----------|----------------|------------|----------------|
  D|-0--------|----------------|-0----------|----------------|
 
  e|----------|----------------|------------|----------------|
  B|------7---|----5-----5---5-|-------8----|----7-----7---7-|
  G|----------|----------------|------------|----------------|
  D|----7---7-|-5-----5----5---|----7-----7-|-7-----7----7---|
  A|----------|----------------|------------|----------------|
  D|-0--------|----------------|-0----------|----------------|
 
  e|----------|----------------|------------|----------------|
  B|------7---|----5-----5---5-|-------8----|----7-----7---7-|
  G|----------|----------------|------------|----------------|
  D|----7---7-|-5-----5----5---|----7-----7-|-7-----7----7---|
  A|----------|----------------|------------|----------------|
  D|-0--------|----------------|-0----------|----------------|
 
  e|----------|----------------|------------|----------------|
  B|------7---|----5-----5---5-|-------3----|----2-----2---2-|
  G|----------|----------------|------------|----------------|
  D|----7---7-|-5-----5----5---|----4-----4-|-2----2-----2---|
  A|----------|----------------|------------|----------------|
  D|-5--------|----------------|-5----------|----------------|
 
  e|----------|----------------|-3---0----2-|
  B|------7---|----5-----5---5-|-3---2----3-|
  G|----------|----------------|-0---2----2-|
  D|----7---7-|-5-----5----5---|-0---2----0-|
  A|----------|----------------|-2---0------|
  D|-0--------|----------------|------------|
 
  [Chorus]
  e|--2---2--|-0----0---0--0--|--3---3--|-2----2---2--2--|
  B|--3---3--|-2----2---2--2--|--3---3--|-3----3---3--3--|
  G|--4---4--|-2----2---2--2--|--0---0--|-2----2---2--2--|
  D|--4---4--|-2----2---2--2--|--0---0--|-0----0---0--0--|
  A|--2---2--|-0----0---0--0--|--2---2--|----------------|
  D|---------|----------------|---------|----------------|
  
  e|--2---2--|-0----0---0--0--|--3---0---2--|
  B|--3---3--|-2----2---2--2--|--3---2---3--|
  G|--4---4--|-2----2---2--2--|--0---2---2--|
  D|--4---4--|-2----2---2--2--|--0---2---0--|
  A|--2---2--|-0----0---0--0--|--2---0------|
  D|---------|----------------|-------------|

  e|--2---2--|-0----0---0--0--|--3---3--|-2----2---2--2--|
  B|--3---3--|-2----2---2--2--|--3---3--|-3----3---3--3--|
  G|--4---4--|-2----2---2--2--|--0---0--|-2----2---2--2--|
  D|--4---4--|-2----2---2--2--|--0---0--|-0----0---0--0--|
  A|--2---2--|-0----0---0--0--|--2---2--|----------------|
  D|---------|----------------|---------|----------------|
  
  e|--2---2--|-0----0---0--0--|--3----H7----|
  B|--3---3--|-2----2---2--2--|--3----H7----|
  G|--4---4--|-2----2---2--2--|--0----H7----|
  D|--4---4--|-2----2---2--2--|--0----------|
  A|--2---2--|-0----0---0--0--|--2----------|
  D|---------|----------------|-------------|
 
  [Verse 2]
  e|----------|----------------|------------|----------------|
  B|------7---|----5-----5---5-|-------8----|----7-----7---7-|
  G|----------|----------------|------------|----------------|
  D|----7---7-|-5-----5----5---|----7-----7-|-7-----7----7---|
  A|----------|----------------|------------|----------------|
  D|-0--------|----------------|-0----------|----------------|
 
  e|----------|----------------|------------|----------------|
  B|------7---|----5-----5---5-|-------8----|----7-----7---7-|
  G|----------|----------------|------------|----------------|
  D|----7---7-|-5-----5----5---|----7-----7-|-7-----7----7---|
  A|----------|----------------|------------|----------------|
  D|-0--------|----------------|-0----------|----------------|
 
  e|----------|----------------|------------|----------------|
  B|------7---|----5-----5---5-|-------8----|----7-----7---7-|
  G|----------|----------------|------------|----------------|
  D|----7---7-|-5-----5----5---|----7-----7-|-7-----7----7---|
  A|----------|----------------|------------|----------------|
  D|-0--------|----------------|-0----------|----------------|
 
  e|----------|----------------|------------|----------------|
  B|------7---|----5-----5---5-|-------8----|----7-----7---7-|
  G|----------|----------------|------------|----------------|
  D|----7---7-|-5-----5----5---|----7-----7-|-7-----7----7---|
  A|----------|----------------|------------|----------------|
  D|-0--------|----------------|-0----------|----------------|
 
  e|----------|----------------|------------|-------------------|
  B|------7---|----5-----5---5-|-------8----|----10-----10---10-|
  G|----------|----------------|------------|-------------------|
  D|----7---7-|-5-----5----5---|----7-----7-|-11----11----11----|
  A|----------|----------------|------------|-------------------|
  D|-5--------|----------------|-5----------|-------------------|
 
  e|----------|----------------|------------|----------------|
  B|------7---|----5-----5---5-|-------8----|----7-----7---7-|
  G|----------|----------------|------------|----------------|
  D|----7---7-|-5-----5----5---|----7-----7-|-7-----7----7---|
  A|----------|----------------|------------|----------------|
  D|-0--------|----------------|-0----------|----------------|
 
  e|----------|----------------|------------|----------------|
  B|------7---|----5-----5---5-|-------8----|----7-----7---7-|
  G|----------|----------------|------------|----------------|
  D|----7---7-|-5-----5----5---|----7-----7-|-7-----7----7---|
  A|----------|----------------|------------|----------------|
  D|-0--------|----------------|-0----------|----------------|
 
  e|----------|----------------|------------|----------------|
  B|------7---|----5-----5---5-|-------8----|----7-----7---7-|
  G|----------|----------------|------------|----------------|
  D|----7---7-|-5-----5----5---|----7-----7-|-7-----7----7---|
  A|----------|----------------|------------|----------------|
  D|-0--------|----------------|-0----------|----------------|
 
  e|----------|----------------|------------|----------------|
  B|------7---|----5-----5---5-|-------3----|----2-----2---2-|
  G|----------|----------------|------------|----------------|
  D|----7---7-|-5-----5----5---|----4-----4-|-2----2-----2---|
  A|----------|----------------|------------|----------------|
  D|-5--------|----------------|-5----------|----------------|
 
  e|----------|----------------|-3---0----2-|
  B|------7---|----5-----5---5-|-3---2----3-|
  G|----------|----------------|-0---2----2-|
  D|----7---7-|-5-----5----5---|-0---2----0-|
  A|----------|----------------|-2---0------|
  D|-0--------|----------------|------------|
 
  [Chorus]
  e|--2---2--|-0----0---0--0--|--3---3--|-2----2---2--2--|
  B|--3---3--|-2----2---2--2--|--3---3--|-3----3---3--3--|
  G|--4---4--|-2----2---2--2--|--0---0--|-2----2---2--2--|
  D|--4---4--|-2----2---2--2--|--0---0--|-0----0---0--0--|
  A|--2---2--|-0----0---0--0--|--2---2--|----------------|
  D|---------|----------------|---------|----------------|
  
  e|--2---2--|-0----0---0--0--|--3---0---2--|
  B|--3---3--|-2----2---2--2--|--3---2---3--|
  G|--4---4--|-2----2---2--2--|--0---2---2--|
  D|--4---4--|-2----2---2--2--|--0---2---0--|
  A|--2---2--|-0----0---0--0--|--2---0------|
  D|---------|----------------|-------------|

  e|--2---2--|-0----0---0--0--|--3---3--|-2----2---2--2--|
  B|--3---3--|-2----2---2--2--|--3---3--|-3----3---3--3--|
  G|--4---4--|-2----2---2--2--|--0---0--|-2----2---2--2--|
  D|--4---4--|-2----2---2--2--|--0---0--|-0----0---0--0--|
  A|--2---2--|-0----0---0--0--|--2---2--|----------------|
  D|---------|----------------|---------|----------------|
  
  e|--2---2--|-0----0---0--0--|--3----H7----|
  B|--3---3--|-2----2---2--2--|--3----H7----|
  G|--4---4--|-2----2---2--2--|--0----H7----|
  D|--4---4--|-2----2---2--2--|--0----------|
  A|--2---2--|-0----0---0--0--|--2----------|
  D|---------|----------------|-------------|

  e|----------|----------------|------------|----------------|
  B|------7---|----5-----5---5-|-------8----|----7-----7---7-|
  G|----------|----------------|------------|----------------|
  D|----7---7-|-5-----5----5---|----7-----7-|-7-----7----7---|
  A|----------|----------------|------------|----------------|
  D|-0--------|----------------|-0----------|----------------|
 
 
  [Bridge]
  e|-------7----|----9-----9-----9--|-------10-----|----9---9-----9--|
  B|------------|-------------------|--------------|-----------------|
  G|-----7---7--|--9----9-----9-----|-----9----9---|--9---9----9-----|
  D|--0---------|-------------------|--0-----------|-----------------|
  A|------------|-------------------|--------------|-----------------|
  D|------------|-------------------|--------------|-----------------|

  e|-------7----|----9-----9-----9--|-------10-----|----9---9-----9--|
  B|------------|-------------------|--------------|-----------------|
  G|-----7---7--|--9----9-----9-----|-----9----9---|--9---9----9-----|
  D|--0---------|-------------------|--0-----------|-----------------|
  A|------------|-------------------|--------------|-----------------|
  D|------------|-------------------|--------------|-----------------|

  e|-------7----|----9-----9-----9--|-------10-----|----9---9-----9--|
  B|------------|-------------------|--------------|-----------------|
  G|-----7---7--|--9----9-----9-----|-----9----9---|--9---9----9-----|
  D|--0---------|-------------------|--0-----------|-----------------|
  A|------------|-------------------|--------------|-----------------|
  D|------------|-------------------|--------------|-----------------|

  e|-------7----|----9-----9-----9--|-------10-----|----9---9-----9--|
  B|------------|-------------------|--------------|-----------------|
  G|-----7---7--|--9----9-----9-----|-----9----9---|--9---9----9-----|
  D|--0---------|-------------------|--0-----------|-----------------|
  A|------------|-------------------|--------------|-----------------|
  D|------------|-------------------|--------------|-----------------|
 
  e|----------|----------------|------------|----------------|
  B|------7---|----5-----5---5-|-------3----|----1-----1---1-|
  G|----------|----------------|------------|----------------|
  D|----7---7-|-5-----5----5---|----4-----4-|-2-----2----2---|
  A|----------|----------------|------------|----------------|
  D|-0--------|----------------|-0----------|----------------|

  e|----------|----------------|--3--0---2---|
  B|------0---|----2-----2---2-|--3--2---3---|
  G|----------|----------------|--0--2---2---|
  D|----0---0-|-2-----2----2---|--0--2---0---|
  A|----------|----------------|--2--0-------|
  D|-0--------|----------------|-------------|
 
  [Chorus]
  e|--2---2--|-0----0---0--0--|--3---3--|-2----2---2--2--|
  B|--3---3--|-2----2---2--2--|--3---3--|-3----3---3--3--|
  G|--4---4--|-2----2---2--2--|--0---0--|-2----2---2--2--|
  D|--4---4--|-2----2---2--2--|--0---0--|-0----0---0--0--|
  A|--2---2--|-0----0---0--0--|--2---2--|----------------|
  D|---------|----------------|---------|----------------|
  
  e|--2---2--|-0----0---0--0--|--3---0---2--|
  B|--3---3--|-2----2---2--2--|--3---2---3--|
  G|--4---4--|-2----2---2--2--|--0---2---2--|
  D|--4---4--|-2----2---2--2--|--0---2---0--|
  A|--2---2--|-0----0---0--0--|--2---0------|
  D|---------|----------------|-------------|

  e|--2---2--|-0----0---0--0--|--3---3--|-2----2---2--2--|
  B|--3---3--|-2----2---2--2--|--3---3--|-3----3---3--3--|
  G|--4---4--|-2----2---2--2--|--0---0--|-2----2---2--2--|
  D|--4---4--|-2----2---2--2--|--0---0--|-0----0---0--0--|
  A|--2---2--|-0----0---0--0--|--2---2--|----------------|
  D|---------|----------------|---------|----------------|
  
  e|--2---2--|-0----0---0--0--|--3-----|
  B|--3---3--|-2----2---2--2--|--3-----|
  G|--4---4--|-2----2---2--2--|--0-----|
  D|--4---4--|-2----2---2--2--|--0-----|
  A|--2---2--|-0----0---0--0--|--2-----|
  D|---------|----------------|--------|

  e|--2---2--|-0----0---0--0--|--3---3--|-2----2---2--2--|
  B|--3---3--|-2----2---2--2--|--3---3--|-3----3---3--3--|
  G|--4---4--|-2----2---2--2--|--0---0--|-2----2---2--2--|
  D|--4---4--|-2----2---2--2--|--0---0--|-0----0---0--0--|
  A|--2---2--|-0----0---0--0--|--2---2--|----------------|
  D|---------|----------------|---------|----------------|
  
  e|--2---2--|-0----0---0--0--|--3---0---2--|
  B|--3---3--|-2----2---2--2--|--3---2---3--|
  G|--4---4--|-2----2---2--2--|--0---2---2--|
  D|--4---4--|-2----2---2--2--|--0---2---0--|
  A|--2---2--|-0----0---0--0--|--2---0------|
  D|---------|----------------|-------------|

  e|--2---2--|-0----0---0--0--|--3---3--|-2----2---2--2--|
  B|--3---3--|-2----2---2--2--|--3---3--|-3----3---3--3--|
  G|--4---4--|-2----2---2--2--|--0---0--|-2----2---2--2--|
  D|--4---4--|-2----2---2--2--|--0---0--|-0----0---0--0--|
  A|--2---2--|-0----0---0--0--|--2---2--|----------------|
  D|---------|----------------|---------|----------------|
  
  e|--2---2--|-0----0---0--0--|--3----H7----|
  B|--3---3--|-2----2---2--2--|--3----H7----|
  G|--4---4--|-2----2---2--2--|--0----H7----|
  D|--4---4--|-2----2---2--2--|--0----------|
  A|--2---2--|-0----0---0--0--|--2----------|
  D|---------|----------------|-------------|

  e|----------|----------------|--------------------|
  B|------7---|----5-----5---5-|-------3-----2---3--|
  G|----------|----------------|--------------------|
  D|----7---7-|-5-----5----5---|----4-----2------4--|
  A|----------|----------------|--------------------|
  D|-0--------|----------------|--------------------|
Suggest correction
Creating personal tab
Creating personal tab
You can edit any tab online and save it as your Personal.

You can edit, replace or remove any tab part or add personal notes – all changes will be seen only by you.

Personal tabs can be accessed anytime from any device, even offline.
Learn more »
Give kudos to tab author, rate the tab!
1 2 3 4 5
comments
print report bad tab
guest
You may want to rate the tab now too:
select rating
Wanna post a correction for this tab? Suggest correction