Oops, an error
Loading. Please wait.

Las Asambleas Nos Hacen Felices ukulele

2,263 views 39 this week
no commentswrite comment
1 2 3 4 5
2 more votes to show rating
add to favorites
×
Save as Personal and add changes to this tab that will be seen only by you. Learn more ›
×
You can save this tab as Personal to edit and correct it or add notes. All changes will be seen only by you. Learn more »
launch autoscroll
font size
0
reset
transpose
0
reset
simplify chords
display chords
guitar tuner
edit
Autoscroll
slow
fast
+/-
esc
set tempo
stop
About this tab version
This is the Spanish version of the song. Was this info helpful? Yes No
Strumming
There is no strumming pattern for this song yet. and get +5 IQ
Cejilla 1

[Cejilla necesario para tocar con la música original pero sona bien sin]

Introduccion:

A|-----2-----------2------------2--2-------2---|
E|-----3-----------2------------0--0-----------|
C|-----2-----------2---------0--0--0----0------|
G|--0-------0---2--------2---------------------|


A|-----2-----------2------------2--2-----------|
E|-----3-----------2------------0--0-----------|
C|-----2-----------2---------0--0--0-----------|
G|--0-------0---2--------2---------------------|


[Verse]

A|-----2-----------2------------2--2-----------|
E|-----3-----------2------------0--0-----------|
C|-----2-----------2---------0--0--0-----------|X6 [una vez por linea]
G|--0-------0---2--------2---------------------|


Estamos juntos trabajo a tu lado  
hoy anunciamos un día alegre,
el mundo es frío y no tiene piedad
Aquí tenemos paz y unidad.
Yeah!
Yeah!


[Estribillo]

C                 D                        G                    Gsus4  G  Gsus2
Mis hermanos, mis hermanas, todos me dan calor, 

                                                   A|---2----3----2----0-----|
                                                   E|---3----3----3----3-----|
                                                   C|---2----2----2----2-----|
                                                   G|---0----0----0----0-----|
                                                              
C                     D                      G                 Gsus4  G  Gsus2
Y aunque apenas te conozco tú ya tienes mi amor, oooh
C                 D                        G                   Gsus4  G  Gsus2
Mis hermanos, mis hermanas, todos me dan calor,
C                     D                        [repetir introducción]             
Y aunque apenas te conozco tú ya tienes mi amor. 

A|-----2-----------2------------2--2-------2---|
E|-----3-----------2------------0--0-----------|
C|-----2-----------2---------0--0--0----0------|
G|--0-------0---2--------2---------------------|

A|-----2-----------2------------2--2-----------|
E|-----3-----------2------------0--0-----------|
C|-----2-----------2---------0--0--0-----------|
G|--0-------0---2--------2---------------------|


[Verse]

A|-----2-----------2------------2--2-----------|
E|-----3-----------2------------0--0-----------|
C|-----2-----------2---------0--0--0-----------| X4
G|--0-------0---2--------2---------------------|

Soy una gota en un mar feliz,
a mí alrededor.
Observo rostros que no son conocidos,
Son mi familia los amo yo.

A|-----2-----------2------------2--2-------2---|
E|-----3-----------2------------0--0-----------|
C|-----2-----------2---------0--0--0----0------|
G|--0-------0---2--------2---------------------|

A|-----2-----------2------------2--2-----------|
E|-----3-----------2------------0--0-----------|
C|-----2-----------2---------0--0--0-----------| X4
G|--0-------0---2--------2---------------------|

Al saludarnos le damos color
aˉeste hogar temporal,
mi corazón recupera fuerzas,
es tan hermoso, voy a llorar.
 

[Estribillo]

C                 D                        G                  Gsus4  G  Gsus2
Mis hermanos, mis hermanas, todos me dan calor, 
C                     D                      G                Gsus4  G  Gsus2
Y aunque apenas te conozco tú ya tienes mi amor, oooh
C                 D                        G                  Gsus4  G  Gsus2
Mis hermanos, mis hermanas, todos me dan calor, 
C                     D                        [repetir introducción]             
Y aunque apenas te conozco tú ya tienes mi amor.  

A|-----2-----------2------------2--2-------2---|
E|-----3-----------2------------0--0-----------|
C|-----2-----------2---------0--0--0----0------|
G|--0-------0---2--------2---------------------|

[Conexión]

Em  C       G     Gsus4  G  Gsus2
Ven hacia mí...
Em      C      G     Gsus4  G  Gsus2
estoy junto a ti...
Em C       G     Gsus4  G  Gsus2
contigo YOOO
Em      C      [<- un solo rasgueo por los dos acuerdos]         
Caminaré a la eternidad...

A|-----2-----------2------------2--2-------2---|
E|-----3-----------2------------0--0-----------|
C|-----2-----------2---------0--0--0----0------|
G|--0-------0---2--------2---------------------|

A|-----2-----------2------------2--2-----------|
E|-----3-----------2------------0--0-----------|
C|-----2-----------2---------0--0--0-----------|
G|--0-------0---2--------2---------------------|
 

[Estribillo]

C                 D                        G                  Gsus4  G  Gsus2
Mis hermanos, mis hermanas, todos me dan calor, 
C                     D                      G                Gsus4  G  Gsus2
Y aunque apenas te conozco tú ya tienes mi amor, oooh
C                 D                        G                  Gsus4  G  Gsus2
Mis hermanos, mis hermanas, todos me dan calor, 
C                     D                    [repetir introducción]             
Y aunque apenas te conozco tú ya tienes mi amor.  

A|-----2-----------2------------2--2-------2---|
E|-----3-----------2------------0--0-----------|
C|-----2-----------2---------0--0--0----0------|
G|--0-------0---2--------2---------------------|

A|-----2-----------2------------2--2-----------|
E|-----3-----------2------------0--0-----------|
C|-----2-----------2---------0--0--0-----------|
G|--0-------0---2--------2---------------------|

C  [un solo rasgueo]   D  [un solo rasgueo]  Gsus2        G
Y aunque apenas te conozco tú ya tienes mi amor….




copied from english version, translated and adjusted

            
            
Suggest correction
Creating personal tab
Creating personal tab
You can edit any tab online and save it as your Personal.

You can edit, replace or remove any tab part or add personal notes – all changes will be seen only by you.

Personal tabs can be accessed anytime from any device, even offline.
Learn more »
Give kudos to tab author, rate the tab!
1 2 3 4 5
comments
print report bad tab
guest
You may want to rate the tab now too:
select rating
Wanna post a correction for this tab? Suggest correction