Oops, an error
Loading. Please wait.

Now Is The Time Tab

85 views 45 this week
no commentswrite comment
1 2 3 4 5
2 more votes to show rating
add to favorites
launch autoscroll
font size
0
reset
how to read this tab
guitar tuner
Autoscroll
slow
fast
+/-
esc
set tempo
stop
Help us to improve Ultimate-Guitar.com Take our survey!
×
Author
Difficulty
intermediate
About this tab version
This tab is the finger style version, no capo, and fairly easy for intermediate finger stylists. Was this info helpful? Yes No
Now is the time – JW Broadcasting
Liz R
Standard tuning

[Intro]
   G                                      Cadd9
e|--------------------------------|--------------------------------|
B|----------3-----------3---------|---------3----------3-----------|
G|------0------0-----0-----0------|------0-----0----0----0---------|
D|----------------0—---------0----|--------------2-----------2-----|
A|--------------------------------|----3---------------------------|
E|---3----------------------------|--------------------------------|

[Verse]
    G                                         Cadd9
e|--------------------------------|--------------------------------|
B|----------3-----------3---------|---------3----------3-----------|
G|------0------0-----0-----0------|------0-----0----0----0---------|
D|----------------0—---------0----|--------------2-----------2-----|
A|--------------------------------|----3---------------------------|
E|---3----------------------------|--------------------------------|
    With   our   days   forever    darkening,    and    the 

    Em                                         D
e|--------------------------------|--------------------------------|
B|----------3-----------3---------|----------3----------3----------|
G|------0------0-----0-----0------|-------2-----2-----2----2-------|
D|----------------2—---------2----|----0-----------0----------0----|
A|--------------------------------|--------------------------------|
E|---0----------------------------|--------------------------------|
    signs        so       very      clear.

    G                                         Cadd9
e|--------------------------------|--------------------------------|
B|----------3-----------3---------|---------3----------3-----------|
G|------0------0-----0-----0------|------0-----0----0----0---------|
D|----------------0—---------0----|--------------2-----------2-----|
A|--------------------------------|----3---------------------------|
E|---3----------------------------|--------------------------------|
    We    must   keep our sense of urgency, as the 

    G                                D
e|--------------------------------|--------------------------------|
B|----------3-----------3---------|----------3----------3----------|
G|------0------0-----0-----0------|-------2-----2-----2----2-------|
D|----------------0—---------0----|----0-----------0----------0----|
A|--------------------------------|--------------------------------|
E|---3----------------------------|--------------------------------|
    end       is      drawing       near.   

 G                                            Cadd9
e|--------------------------------|--------------------------------|
B|----------3-----------3---------|---------3----------3-----------|
G|------0------0-----0-----0------|------0-----0----0----0---------|
D|----------------0—---------0----|--------------2-----------2-----|
A|--------------------------------|----3---------------------------|
E|---3----------------------------|--------------------------------|
  We     will seize this opportunity

    Em                                         D
e|--------------------------------|--------------------------------|
B|----------3-----------3---------|----------3----------3----------|
G|------0------0-----0-----0------|-------2-----2-----2----2-------|
D|----------------2—---------2----|----0-----------0----------0----|
A|--------------------------------|--------------------------------|
E|---0----------------------------|--------------------------------|
   to     declare    Jehovah’s      name.


    Am                                          G
e|-------------------------------|---------------------------------|
B|---------1----------1----------|-----------3---------3-----------|
G|------2-----2----2-----2-------|--------0-----0----0-----0-------|
D|---------------0—---------0----|-----------------0----------0----|
A|---0---------------------------|---------------------------------|
E|-------------------------------|-----3---------------------------|
   And   the   blessings   of   His  kingdom, is the 

    Cadd9                                      D
e|-------------------------------------2--x------------------------|
B|----------3-----------3--------------3--x------------------------|
G|------0------0-----0-----0-----------2--x------------------------|
D|----------------2—---------2---------0--x------------------------|
A|---3------------------------------------x------------------------|
E|----------------------------------------x------------------------|
    message       we’ll              proclaim.

[Chorus]
   G                                                  Cadd9
e|-------------------------------|---------------------------------|
B|----------3-----------3--------|---------3----------3------------|
G|------0------0-----0-----0-----|-------0-----0----0----0---------|
D|----------------0—---------0---|---------------2-----------2-----|
A|-------------------------------|-----3---------------------------|
E|---3---------------------------|---------------------------------|
 Now is the time for preaching with zeal. We’ll never give 

    Em                                         D
e|-------------------------------|---------------------------------|
B|----------3-----------3--------|-----------3----------3----------|
G|------0------0-----0-----0------|-------2-----2-----2----2-------|
D|----------------2—---------2---|-----0-----------0----------0----|
A|-------------------------------|---------------------------------|
E|---0---------------------------|---------------------------------|
    up   or   give   way   to      fear.

   G                                                  Cadd9
E|-------------------------------|---------------------------------|
B|----------3-----------3--------|----------3----------3-----------|
G|------0------0-----0-----0-----|-------0-----0----0----0---------|
D|----------------0—---------0---|---------------2-----------2-----|
A|-------------------------------|-----3---------------------------|
E|---3---------------------------|---------------------------------|
  And now is the time, to show how we feel. Now that the 

    Em                                         D
e|------------------------------------2--x-------------------------|
B|----------3-----------3-------------3--x-------------------------|
G|------0------0-----0-----0----------2--x-------------------------|
D|----------------2—---------2--------0--x-------------------------|
A|---------------------------------------x-------------------------|
E|---0-----------------------------------x-------------------------|
   final         days                are   here.

   G                                 G
e|------------------------------|----------------------------------|
B|----------3-----------3-------|-----------3----------3-----------|
G|------0------0-----0-----0----|--------0-----0----0----0---------|
D|----------------0—---------0--|-----------------0----------0-----|
A|------------------------------|----------------------------------|
E|---3--------------------------|------3---------------------------|

[Verse]
    G                                         Cadd9
e|------------------------------|----------------------------------|
B|----------3-----------3-------|-----------3----------3-----------|
G|------0------0-----0-----0----|--------0-----0----0----0---------|
D|----------------0—---------0--|----------------2-----------2-----|
A|------------------------------|------3---------------------------|
E|---3--------------------------|----------------------------------|
    There will never be another time, for this 


    Em                                         D
e|------------------------------|----------------------------------|
B|----------3-----------3-------|------------3----------3----------|
G|------0------0-----0-----0----|---------2-----2-----2----2-------|
D|----------------2—---------2--|------0-----------0----------0----|
A|------------------------------|----------------------------------|
E|---0--------------------------|----------------------------------|
    preaching     to      be        done.

    G                                         Cadd9
e|------------------------------|----------------------------------|
B|----------3-----------3-------|-----------3----------3-----------|
G|------0------0-----0-----0----|--------0-----0----0----0---------|
D|----------------0—---------0--|----------------2-----------2-----|
A|------------------------------|------3---------------------------|
E|---3--------------------------|----------------------------------|
   So    we     want   to  have  a  part in it, and reach 

    G                                          D
e|-------------------------------|---------------------------------|
B|----------3-----------3--------|----------3----------3-----------|
G|------0------0-----0-----0-----|--------2-----2-----2----2-------|
D|----------------0—---------0---|-----0-----------0----------0----|
A|-------------------------------|---------------------------------|
E|---3---------------------------|---------------------------------|
    out              to              everyone.

 G                                            Cadd9
e|-------------------------------|---------------------------------|
B|----------3-----------3--------|----------3----------3-----------|
G|------0------0-----0-----0-----|-------0-----0----0----0---------|
D|----------------0—---------0---|---------------2-----------2-----|
A|-------------------------------|-----3---------------------------|
E|---3---------------------------|---------------------------------|
   When we look back in some       future time at these 

    Em                                         D
e|-------------------------------|---------------------------------|
B|----------3-----------3--------|-----------3----------3----------|
G|------0------0-----0-----0-----|--------2-----2-----2----2-------|
D|----------------2—---------2---|-----0-----------0----------0----|
A|-------------------------------|---------------------------------|
E|---0---------------------------|---------------------------------|
   days      at     which    we     live,


    Am                                          G
e|-------------------------------|---------------------------------|
B|---------1----------1----------|-----------3---------3-----------|
G|------2-----2----2-----2-------|--------0-----0----0-----0-------|
D|---------------0—---------0----|-----------------0----------0----|
A|---0---------------------------|---------------------------------|
E|-------------------------------|-----3---------------------------|
   Then   we’ll   say   that   for  Jehovah, we gave 

    Cadd9                                      D
e|-------------------------------------2--x------------------------|
B|----------3-----------3--------------3--x------------------------|
G|------0------0-----0-----0-----------2--x------------------------|
D|----------------2—---------2---------0--x------------------------|
A|---3------------------------------------x------------------------|
E|----------------------------------------x------------------------|
    all     that     we    could     give!

[Chorus]
   G                                                  Cadd9
e|--------------------------------|--------------------------------|
B|----------3-----------3---------|---------3----------3-----------|
G|------0------0-----0-----0------|------0-----0----0----0---------|
D|----------------0—---------0----|--------------2-----------2-----|
A|--------------------------------|----3---------------------------|
E|---3----------------------------|--------------------------------|
 Now is the time for preaching with zeal. We’ll never give 

    Em                                         D
e|-------------------------------|---------------------------------|
B|----------3-----------3--------|-----------3----------3----------|
G|------0------0-----0-----0-----|--------2-----2-----2----2-------|
D|----------------2—---------2---|-----0-----------0----------0----|
A|-------------------------------|---------------------------------|
E|---0---------------------------|---------------------------------|
    up   or   give   way   to      fear.

   G                                                  Cadd9
e|-------------------------------|---------------------------------|
B|----------3-----------3--------|----------3----------3-----------|
G|------0------0-----0-----0-----|-------0-----0----0----0---------|
D|----------------0—---------0---|---------------2-----------2-----|
A|-------------------------------|-----3---------------------------|
E|---3---------------------------|---------------------------------|
  And now is the time, to show how we feel. Now that the 



    Em                                         D
e|------------------------------------2--x--------------------------|
B|----------3-----------3-------------3--x--------------------------|
G|------0------0-----0-----0----------2--x--------------------------|
D|----------------2—---------2--------0--x--------------------------|
A|---------------------------------------x--------------------------|
E|---0-----------------------------------x--------------------------|
   final         days                are   here.

    G      G
e|---3------3---|
B|---3------3---|
G|---0------0---|
D|---0------0---|
A|---2------2---|
E|---3------3---|

[Bridge]

           Em           Cadd9                  G                D
e|----------3-------------3--------------------3----------------2---|
B|----------3-------------3--------------------3----------------3---|
G|----------0-------------0--------------------0----------------2---|
D|----------2-------------2--------------------0----------------0---|
A|----------2-------------3--------------------2----------------x---|
E|----------0-------------x--------------------3----------------x---|
With all loyal ones, surrounding us, we will run with all our might. 
          
          Am             G                 Cadd9      D
e|----------0--0--0--0----3--3--3--3-----3--3--3--3---2------------|
B|----------1--1--1--1----3--3--3--3-----3--3--3--3---3------------|
G|----------2--2--2--2----0--0--0--0-----0--0--0--0---2------------|
D|----------2--2--2--2----0--0--0--0-----2--2--2--2---0------------|
A|----------0--0--0--0----2--2--2--2-----3--3--3--3---x------------|
E|----------x--x--x--x----3--3--3--3-----x--x--x--x---x------------|
Then we turn the final corner, and a new world is insight.

[Chorus]
   G                                                  Cadd9
e|--------------------------------|--------------------------------|
B|----------3-----------3---------|---------3----------3-----------|
G|------0------0-----0-----0------|------0-----0----0----0---------|
D|----------------0—---------0----|--------------2-----------2-----|
A|--------------------------------|----3---------------------------|
E|---3----------------------------|--------------------------------|
 Now is the time for preaching with zeal. We’ll never give 

    Em                                         D
e|--------------------------------|--------------------------------|
B|----------3-----------3---------|----------3----------3----------|
G|------0------0-----0-----0------|-------2-----2-----2----2-------|
D|----------------2—---------2----|----0-----------0----------0----|
A|--------------------------------|--------------------------------|
E|---0----------------------------|--------------------------------|
    up   or   give   way   to      fear.

   G                                                  Cadd9
e|--------------------------------|--------------------------------|
B|----------3-----------3---------|---------3----------3-----------|
G|------0------0-----0-----0------|------0-----0----0----0---------|
D|----------------0—---------0----|--------------2-----------2-----|
A|--------------------------------|----3---------------------------|
E|---3----------------------------|--------------------------------|
  And now is the time, to show how we feel. Now that the 

    Em                                         D
e|------------------------------------2--x-------------------------|
B|----------3-----------3-------------3--x-------------------------|
G|------0------0-----0-----0----------2--x-------------------------|
D|----------------2—---------2--------0--x-------------------------|
A|---------------------------------------x-------------------------|
E|---0-----------------------------------x-------------------------|
   final         days                are   here.


***********************************

| h   Hammer-on
| x   Dead note
| /   Slide-up
| pb  Pre-bend
| ~   Vibrato
| .   Staccato

***********************************
Suggest correction
Give kudos to tab author, rate the tab!
1 2 3 4 5
comments
print report bad tab
guest
You may want to rate the tab now too:
select rating
Wanna post a correction for this tab? Suggest correction