Oops, an error
Loading. Please wait.

Now We Are One Chords

151 views 33 this week
no commentswrite comment
1 2 3 4 5
3 more votes to show rating
add to favorites
launch autoscroll
font size
0
reset
transpose
0
reset
simplify chords
display chords
guitar tuner
Autoscroll
slow
fast
+/-
esc
set tempo
stop
Help us to improve Ultimate-Guitar.com Take our survey!
×
Author
[Intro]
Db  Ebm7  Ab7  Bbm  Gb
Db              Ebm7           Ab7  Bbm    
          
     Gb
This is at last bone of the my bone flesh of my flesh now i'm not alone
Ebm   Fm  Gb  Bbm         Gb          
Ebm7       Ab7
God has provided a partner someone to call my own
Db              Ebm7           Ab7  Bbm              
     Gb
Now we are one now we can be all that Jehovah made us to be
Ebm   Fm  Gb  Bbm          Gb          Ebm6
  as man and woman together we are a family

F        Bbm              F         Gm7  C7
Every day we'll serve our god above as he
F            Bbm  G      Ebm7           Ab7  Db
shows the way unfailing love we'll display as we have vowed
Ebm7      Ab7 Bbm              Gb             
Ebm Fm Gb Bbm
so may it be season of joy may we come to see oh may we honor Jehovah
Gb          Ebm7      Ab7 Db
And may you always be my love

Now We Are One

[Intro]
e---------------------------------------------------|
B---------------------------------------------------|
G-10-11--13-13--8-10--11-11--6-8--10-10--6-3--5-5-4-|
D---------------------------------------------------|
A---------------------------------------------------|
E---------------------------------------------------|

e-------------------------------------------------|
B---9~----9~--------------------------------------|
G-10----10----------------------------------------|
D-------------------------------------------------|
A-------------------------------------------------|
E-------------------------------------------------|

e-------------------------------------------------|
B-------------------------------------------------|
G-10-11--13-13--8-10--11-11--6-8--10-10--6-3--5-5-|
D-------------------------------------------------|
A-------------------------------------------------|
E-------------------------------------------------|

e--------------------------------------------------|
B-7-9-11~14-13-11-9----9-------9-------------------|
G------------------------11-10---11-8--------------|
D-------------------11-----------------------------|
A--------------------------------------------------|
E--------------------------------------------------|

e-------------------------------------------------|
B-------------------------------------------------|
G-10-11--13-13--8-10--11-11--6-8--10-10--6-3--5-5-|
D-------------------------------------------------|
A-------------------------------------------------|
E-------------------------------------------------|

e-------------------------------------------------|
B-7-9-11~14-13-11-9----9-------9---11-11-10-13----|
G------------------------11-10---11---------------|
D-------------------11----------------------------|
A-------------------------------------------------|
E-------------------------------------------------|


e-------------------------------------------------|
B-8-10-11-11-10----8-10-11-11-10-13--11-13-14-14~-|
G-------------------------------------------------|
D--------------10---------------------------------|
A-------------------------------------------------|
E-------------------------------------------------|

e-------------------------------------------------|
B-11-9--------------------------------------------|
G------11-8---------------------------------------|
D-------------------------------------------------|
A-------------------------------------------------|
E-------------------------------------------------|

e-------------------------------------------------|
B-------------------------------------------------|
G-10-11--13-13--8-10--11-11--6-8--10-10--6-3--5-5-|
D-------------------------------------------------|
A-------------------------------------------------|
E-------------------------------------------------|

e--------------------------------------------------|
B-7-9-11~14-13-11-9----9-------9---11~-------------|
G------------------------11-10---11----------------|
D-------------------11------------------10-11~-----|
A--------------------------------------------------|
E--------------------------------------------------|

************************************

| ~  Vibrato

************************************
Suggest correction
Give kudos to tab author, rate the tab!
1 2 3 4 5
comments
print report bad tab
guest
You may want to rate the tab now too:
select rating
Wanna post a correction for this tab? Suggest correction