Oops, an error
Loading. Please wait.

Study Makes You Strong chords

7,882 views 87 this week
5 commentsread comments
1 2 3 4 5
x 15
add to favorites
×
Save as Personal and add changes to this tab that will be seen only by you. Learn more ›
×
You can save this tab as Personal to edit and correct it or add notes. All changes will be seen only by you. Learn more »
launch autoscroll
font size
0
reset
transpose
0
reset
simplify chords
display chords
guitar tuner
edit
Autoscroll
slow
fast
+/-
esc
set tempo
stop
Author
Difficulty
About this tab version
Chords, lyrics and guitar parts. Was this info helpful? Yes No
Strumming
There is no strumming pattern for this song yet. and get +5 IQ
[Intro]
e|---7---7-|--7---7--|---7---7-|
B|-5---5---|----5----|-5---5---|
G|---------|---------|---------|
D|---------|---------|---------|
A|---------|---------|---------|
E|---------|---------|---------|


[Verse 1]
E
Since we could crawl,
           B
our family studied it all.
F#m
Even though small,
         A     NC                   B
we understood what we were learning.
E
Father would read to me
   B
before I would sleep.
F#m
Now I am taller,
             A     NC              B
I still keep up with that routine.
C#m
And when I’m by myself,
  F#
I take that book down off the shelf.
    A
I remember what the scripture said
                                   B
that I would need so I could stand firm.

[Chorus]
                 E
Study makes you strong.
                                     B
Just like a tree that’s planted by a river stream.
                 A
Study makes you strong.
                                        F#m       B
Your leaves just won’t dry out and everything succeeds.
                 E
Study makes you strong.
                                    B
Just like a tree that’s planted its roots down deep.
                 A
Study makes you strong.
                                            F#m       B
You’ll grow so big and tall there’s nothing you won’t see.

[Verse 2]
E
What will I say
             B
when a big chance comes my way?
F#m
What will my classmates say
     A    NC                   B
if I don’t follow with them?
E
All of the information's
B
here on display.
F#m
I’m not afraid because
  A     NC                    B
I learned this as an infant.
C#m
‘Cause when I’m by myself,
  F#
I take that book down off the shelf.
    A
I remember what the scripture said
                                 B
that I would need so I can stand firm.

[Chorus]
                E
Study makes you strong.
                                     B
Just like a tree that’s planted by a river stream.
                 A
Study makes you strong.
                                        F#m       B
Your leaves just won’t dry out and everything succeeds.
                 E
Study makes you strong.
                                    B
Just like a tree that’s planted its roots down deep.
                 A
Study makes you strong.
                                            F#m       B
You’ll grow so big and tall there’s nothing you won’t see.

[Bridge]
C#m   F#          B7      E
Every word that’s helping me,
C#m      F#       B7   E
Could contain the very key.
F#m                          A                    B     G#
To offer just the help and encouragement somebody needs.

[Break]
                 C#             G#
Study makes you strong…
                 D#m        F#  G#
Study makes you strong.
                  E             B
Study makes you strong…
                  F#m       A   B
Study makes you strong.

[Chorus]
                E
Study makes you strong.
                                     B
Just like a tree that’s planted by a river stream.
                 A
Study makes you strong.
                                        F#m       B
Your leaves just won’t dry out and everything succeeds.
                 E
Study makes you strong.
                                    B
Just like a tree that’s planted its roots down deep.
                 A
Study makes you strong.
                                            F#m       B      E
You’ll grow so big and tall there’s nothing you won’t see.


[Riff 1 played over 1st E chord during bridge]

e|--------------|
B|--------------|
G|--------------|
D|--------------|
A|-----7-9-7---7|
E|-7-9-------9--|

[Riff 2 played over 2nd E chord during bridge]

e|---------------|
B|---------------|
G|---------------|
D|---------------|
A|-----9/11-7--7-|
E|-7-9-------9---|

[Break]
  G#         C#                             G#        D#m                            F#
e|----------|-----------|------------------|---------|------------|-----------------|-----|
B|----------|-----------|------------------|---------|------------|-----------------|-----|
G|----------|-----------|------------------|---------|------------|-----------------|-----|
D|----------|-----------|------------------|---------|------------|-----------------|-----|
A|-------4--|-4-6/8-6-4-|-6/8-6-4----4---4-|-6-------|-4--6/8-6-4-|-6/8-6-4----4---4|-6-8-|
E|-4-4-6---6|-----------|----------6---6---|---6---4-|------------|----------6---6--|-----|

  G#         E                                B        F#m
A      B
e|----------|------------|-------------------|--------|-------------|------------------|------|--|
B|----------|------------|-------------------|--------|-------------|------------------|------|--|
G|----------|------------|-------------------|--------|-------------|------------------|------|--|
D|----------|------------|-------------------|--------|-------------|------------------|------|--|
A|-6-----4--|-7-9/11-9-7-|-9/11-9-7----7---7-|-9------|-7--9/11-9-7-|-9/11-9-7----7---7|-9-11-|9-|
E|---4-6---6|------------|-----------9---9---|---9--7-|-------------|-----------9---9--|------|--|

            
            
Suggest correction
Creating personal tab
Creating personal tab
You can edit any tab online and save it as your Personal.

You can edit, replace or remove any tab part or add personal notes – all changes will be seen only by you.

Personal tabs can be accessed anytime from any device, even offline.
Learn more »
comments
print report bad tab
5 comments total. Showing first comments.
0 reply
acousticaftergroove 38 Jan 01, 2017 07:15 PM

There is a missing verse or bridge before the break... Excellent work . Any chance you could add the missing portion?

0 reply
Boris.kabooshka 126 Jan 02, 2017 12:25 AM

All fixed. Sorry, I must have deleted it on a previous edit.

0 reply
acousticaftergroove 38 Jan 02, 2017 12:40 PM

Thanks so so much!!! This is awesome

guest
You may want to rate the tab now too:
select rating
Wanna post a correction for this tab? Suggest correction