Oops, an error
Loading. Please wait.

The Dog Is Mine Tab

by k-os
1,288 views 6 this week
2 commentsread comments
1 2 3 4 5
please rate
add to favorites
launch autoscroll
font size
0
reset
how to read this tab
guitar tuner
Autoscroll
slow
fast
+/-
esc
set tempo
stop
Help us to improve Ultimate-Guitar.com Take our survey!
×
Author
Difficulty
novice
-------------------------------------------------------------------------------
                             The Dog Is Mine - K-os
-------------------------------------------------------------------------------
Tabbed by: lyingfromyou
E-mail: not applicable

Tuning: Standard

Chords:

E         F#        Gm

0         2         4
0         2         4
1         3         4
2         4         6
2         4         6
0         2         4

Here we go. This is the majority of the song, so I won't copy and paste it a hundred times.


Part One. 

        Got to pack my               Things and Go
        Move fast not slow           That dog is mine
   Oh you got to pack your           Things and go
        Move fast not slow           Dog is mine
|---0--0----------------|---4--4----------------|
|---0--0----------------|---4--4----------------|
|---1--1----------------|---4--4----------------|
|---2--2----------------|---6--6----------------|
|---2--2----------------|---6--6----------------|
|---0--0----------------|---4--4----------------|
 1  +  2  +  3  +  4  +  1  +  2  +  3  +  4  +

Moving On.

Part Two.

The next part is on two guitars, but for simplicity I'll tab it as one. 

             You know               Know that you've gotta go
                         So go                  I thought you don't pack a soul
             I tried                I tried to empathize
             But white lies         A dog gotta be a prize

|---0--0----------------|---4--4-----------------|
|---0--0-----7b9--------|---4--4-----------------|
|---1--1-----------8----|---4--4----6b8-6p4-6p4-4|
|---2--2----------------|---6--6-----------------|
|---2--2----------------|---6--6-----------------|
|---0--0----------------|---4--4-----------------|
 1  +  2  +  3  +  4  +  1  +  2  +  3  +  4  +

The lick in the second measure is not played very cleanly, so stutter it up a little.
The notes don't change that I can hear.

Just repeat above for "And now the sun is setting well" part.

Part Three. Bridge:

Malibu     Prius Drive  Who took who     For a ride etc.

|4--------2-------------|------0-----------------|
|4--------2-------------|------0-----------------|
|4--------3-------------|------1-----------------|
|6--------4-------------|------2-----------------|
|6--------4-------------|------2-----------------|
|4--------2-------------|------0-----------------|
|1  +  2  +  3  +  4  + |1  +  2  +  3  +  4  +  |
|Palm muted lightly over|top of this             |
|-----------------------|------------------------|
|-----------------------|------------------------|
|--8--8---8---8--8----8-|---8---8---8--8---8---8-| Rhythm is not exact, for illustration only.
|-----------------------|------------------------|
|-----------------------|------------------------|
|-----------------------|------------------------|
 1  +  2  +  3  +  4  +  1  +  2  +  3  +  4  +

There isn't much to the guitar really. The bass does some cool rambling throughout. 

Order is roughly like this.

Part One   x 4
Part Two   x 8
Part One   x 4
Part Two   x 8
Part One   x 4
Part Three x 8
Part One   x 8
Part Two   x 8
Suggest correction
What's this?
You can suggest a correction to this tab. Community and Mods will review your correction and vote to approve or reject it.
comments
We did not receive enough feedback on this tab! Please rate:
print report bad tab
1 2 3 4 5
2 comments total.
0 reply
amancioleroux 35 wrote on August 15 2013, 05:49 pm

The first lead part doesn't quite sound right....

0 reply
amancioleroux 35 wrote on August 15 2013, 05:50 pm

But great tab otherwise!

guest
You may want to rate the tab now too:
select rating
Please do not post tabs as comments. Select "correction" instead!