Oops, an error
Loading. Please wait.

Mi Credo tab

version 1
version 1

Whole song

114 views 1 this week
no commentswrite comment
1 2 3 4 5
2 more votes to show rating
add to favorites
×
Save as Personal and add changes to this tab that will be seen only by you. Learn more ›
×
You can save this tab as Personal to edit and correct it or add notes. All changes will be seen only by you. Learn more »
launch autoscroll
font size
0
reset
how to read this tab
guitar tuner
edit
Autoscroll
slow
fast
+/-
esc
set tempo
stop
PA QUE NO SUENE TAN AUSTERO O SOLO, TOCA CON UN
ACOMPAÑAMIENTO DE OTRA GUTARRA O CON EL BAJEO DEL
ACOMPAÑAMIENTO QUE ESTA  DESPUES DEL INTRO,
PERO PON ATENCION DONDE ENTRA CADA BAJEO.

Y POR SU POLLO ESTA ROLA VA PARA ARELI

INTRO: (ACOMPAÑAMIENTO O BAJEO)
D Bm Em A,
G A F#m Bm G Em A

e-------------------
B-3---5-3---5-3-----
G---2-----2---------
D-------------------
A-------------------
E-------------------

e----0-2-3-2-0------2-0-
B-3------------3-2------
G-----------------------
D-----------------------
A-----------------------
E-----------------------

e-----------------------
B-3-3-3-3-2-0-----------
G-------------2---------
D-----------------------
A-----------------------
E-----------------------

e-----------------------
B---0-2-3-2----2-2-3-5--
G-2--------------------2
D-----------------------
A-----------------------
E-----------------------

e------------------------------------
B------------------2-3-2-0-2-5-------
G--2-2-0-2-1-4-----------------------
D------------------------------------
A------------------------------------
E------------------------------------

e-----------------------
B--2-2-2-2-3-5-3--------
G-----------------------
D-----------------------
A-----------------------
E-----------------------

D                Bm
 Por donde vayas ire.
  Em                   A7
 Con una venda en los ojos.
  D                 Bm
 Lo que me pidas haré.
 Em                     G          A7
 El amor cuando es verdad es uno solo.

  D                    Bm
 No me preguntes por que.
  Em                A7
 He sido bueno contigo.
  D                        B7
 Solo se que eres mi religion.
   Em                    G         A7
 Que me importa si lo llaman fanatismo.

                      G
 Sin ti yo no soy el mismo.
           A7
 Eres mi credo.
             F#m
 Pedazo de cielo.
            Bm
 Abrazame fuerte.

                      G     Em
 Mi trebol de buena suerte.
            G           A7
 Prefiero morir junto a ti...
       D
 A no verte.

 (intro) D Bm G A7
         G A7 F#m Bm G Em A7


  D                    Bm
 No me preguntes por que.
  Em                A7
 He sido bueno contigo.
  D                        Bm
 Solo se que eres mi religion.
   Em                    G         A7
 Que me importa si lo llaman fanatismo.


                      G
 Sin ti yo no soy el mismo.
           A7
 Eres mi credo.
             F#m
 Pedazo de cielo.
            Bm
 Abrazame fuerte.

                      G    Em
 Mi trebol de buena suerte.
           G             A7
 Prefiero morir junto a ti...
       D
 A no verte. (se repite 2 veces)


SI ME PERMITEN OPINAR CREO QUE ESTE ES EL INTRO
ORIGINAL DE LA ROLA CON k-PAZ Y SI NO ME CREEN SAQUENLA
CON OTRO INSTRUMENTO DE NOTAS NO DE ACOMPAÑAMIENTO.

            
            
Suggest correction
Creating personal tab
Creating personal tab
You can edit any tab online and save it as your Personal.

You can edit, replace or remove any tab part or add personal notes – all changes will be seen only by you.

Personal tabs can be accessed anytime from any device, even offline.
Learn more »
Give kudos to tab author, rate the tab!
1 2 3 4 5
comments
print report bad tab
guest
Wanna post a correction for this tab? Suggest correction