Oops, an error
Loading. Please wait.

Ja Nao Me Interessa Bass Tab

by K2O3
98 views 1 this week
no commentswrite comment
1 2 3 4 5
please rate
add to favorites
launch autoscroll
font size
0
reset
guitar tuner
Autoscroll
slow
fast
+/-
esc
set tempo
stop
Help us to improve Ultimate-Guitar.com Take our survey!
×
Author
Difficulty
novice
BASS

k2o3
Ja nao me interessa

Tab by SuGa

Intro
|-------------------------------|
|-------------------------------|
|-------------------------------|
|-------------------------------|

Intro2
|-------------------------------|
|-------------------------------|
|-5--------7----7---------------|
|-------------------------------|


Refrão
|-------------------------------------------------------|
|-------------------------------------------------------|
|---------------5-5--5----------------------5-5--5------|
|-7-7--7-3-3--3--------5-5--5-7-7--7-3-3--3--------5--5-|

Refrão 2ªparte
|-----------------------------------------------------|
|-----------------------------------------------------|
|---------------5-5--5----------------------5---------|
|-7-7--7-3-3--3--------5-5--5-7-7--7-3-3--3----------5|

Refrão
|-------------------------------------------------------|
|-------------------------------------------------------|
|---------------5-5--5----------------------5-5--5------|
|-7-7--7-3-3--3--------5-5--5-7-7--7-3-3--3--------5--5-|

RefrãoUltimaParte
|-------------------------------------------------|
|-------------------------------------------------|
|---------------5-5--5----------------------------|
|-7-7--7-3-3--3--------5-5--5-3-------------5-----|


Verse(2x)
|-----------------------------------------------|  ------------|
|-----------------------------------------------|  ------------|
|----------5--------------5-5-5---5-------------|  7-7--7--7-7-|
|-7-7-7-------3-3-3----3-------------5-5--5--5-5|  ------------|
                                     ***********
Refrão
|---------------------------------------------------------|
|---------------------------------------------------------|
|-----------------------------5-5--5-5-5--5-7-7--7-7-7-7--|
|-7-7--7-7-7--7-3-3--3-3-3--3-----------------------------|

Refrão 2ªparte
|-------------------------------------------------|
|-------------------------------------------------|
|-----------------------------5-------7-----------|
|-7-7--7-7-7--7-3-3--3-3-3--3---------------------|

Refrão
|-------------------------------------------------------|
|-------------------------------------------------------|
|---------------5-5--5----------------------5-5--5------|
|-7-7--7-3-3--3--------5-5--5-7-7--7-3-3--3--------5--5-|

Refrão 2ªparte
|-----------------------------------------------------|
|-----------------------------------------------------|
|---------------5-5--5----------------------5---------|
|-7-7--7-3-3--3--------5-5--5-7-7--7-3-3--3----------5|

Refrão
|-------------------------------------------------------|
|-------------------------------------------------------|
|---------------5-5--5----------------------5-5--5------|
|-7-7--7-3-3--3--------5-5--5-7-7--7-3-3--3--------5--5-|

RefrãoUltimaParte
|-------------------------------------------------|
|-------------------------------------------------|
|---------------5-5--5----------------------------|
|-7-7--7-3-3--3--------5-5--5-3-------------5-----|

Solo
|-----------------------------------------------|  ------------|
|-----------------------------------------------|  ------------|
|----------5--------------5-5-5---5-------------|  7-7--7--7-7-|
|-7-7-7-------3-3-3----3-------------5-5--5--5-5|  ------------|
                                     ***********
Solo parte2
|---------------------------------------------------------|
|---------------------------------------------------------|
|-----------------------------5-5--5-5-5--5-7-7--7-7-7-7--|
|-7-7--7-7-7--7-3-3--3-3-3--3-----------------------------|

Solo Parte3
|-------------------------------------------------|
|-------------------------------------------------|
|-----------------------------5-------7-----------|
|-7-7--7-7-7--7-3-3--3-3-3--3---------------------|

Refrão
|-------------------------------------------------------|
|-------------------------------------------------------|
|---------------5-5--5----------------------5-5--5------|
|-7-7--7-3-3--3--------5-5--5-7-7--7-3-3--3--------5--5-|

Refrão 2ªparte
|-----------------------------------------------------|
|-----------------------------------------------------|
|---------------5-5--5----------------------5---------|
|-7-7--7-3-3--3--------5-5--5-7-7--7-3-3--3----------5|

Refrão(
|-------------------------------------------------------|
|-------------------------------------------------------|
|---------------5-5--5----------------------5-5--5------|
|-7-7--7-3-3--3--------5-5--5-7-7--7-3-3--3--------5--5-|

RefrãoUltimaParteDiferente
|----------------------------------------------------------|
|----------------------------------------------------------|
|---------------5-5--5-------------------------------------|
|-7-7--7-3-3--3--------5-5--5-3-------------5---5----7-7---|
Suggest correction
Give kudos to tab author, rate the tab!
1 2 3 4 5
comments
print report bad tab
guest
You may want to rate the tab now too:
select rating
Wanna post a correction for this tab? Suggest correction